PrimaNota.ru - самый крупный в мире бесплатный архив песенных текстов, аккордов, табулатур и нот


Misc Unsigned Bands - Puscifer - Momma Sed - таба

Регистрация Запомнить меня
Войти через:  Facebook Google Twitter Vk Yandex Mail.ru

Misc Unsigned Bands - Puscifer - Momma Sed - таба

Печатать
Просмотров: 43
Artist- Puscifer
Song - Momma Sed
Tab by Kristjan Mark

Standard tuning, eadgbe

Main riff

 E4|-------------------------------------------------|
 B3|-------------------------------------------------|
 G3|-------------------------------------------------|
 D3|--6h8-6h8-6----3---------------------------------|
 A2|--------------------6h8-6h8-6---3--1-------------|
 E2|---------------------------------------1---------|

 E4|-------------------------------------------------|
 B3|-------------------------------------------------|
 G3|-------------------------------------------------|
 D3|--6h8-6h8-6----3---------------------------------|
 A2|--------------------6h8-6h8-6---3--1-------------|
 E2|-------------------------------------------------|

repeat until you're sick of it .


Couldn't bother to tab the powerchords used in this song 'cause it needs the guitar to be tuned down .
If you need them, try tuning down a step, they're very simple .


www.puscifer.com
Добавлено: 20.08.2013
Другие материалы по этой песне:
  • Аккорды и текст

Страница создана 20.08.2013
http://primanota.ru/misc-unsigned-bands/puscifer-momma-sed-chords.htm
Привет, Гость.
Предлагаем пройти революционный курс по гитаре.
Подарок от PrimaNota.Ru, забирай!