PrimaNota.ru - самый крупный в мире бесплатный архив песенных текстов, аккордов, табулатур и нот


Misc Unsigned Bands - Pond - Moth Wings - таба

Регистрация Запомнить меня
Войти через:  Facebook Google Twitter Vk Yandex Mail.ru

Misc Unsigned Bands - Pond - Moth Wings - таба

Печатать
Просмотров: 61
-------------------------------------------------------------------------------
                             Moth Wings - Pond
-------------------------------------------------------------------------------
Tabbed by: Lachie Gilmour
E-mail: lachie.gee.mour@gmail.com

Tuning: Standard

e|---------------------------------------------------------------------------------|
b|---------------------------------------------------------------------------------|
g|---------------------------------------------------------------------------| x 6-|
d|--------------------------------5------------------------------------------------|
a|--5h7--5-7--5h7h5-----------------7--5h7 7---------------------------------------|
e|--------------------7-6--5-5-----------------------------------------------------|

e|--------------------------------------------------------------------------------|
b|-777777777777--9999-------------------------------------------------------------|
g|-777777777777--9999-------------------------------------------------------| x 1-|
d|-777777777777--9999-------------------------------------------------------------|
a|-555555555555--7777-------------------------------------------------------------|
e|--------------------------------------------------------------------------------|

e|---------------------------------------------------------------------------------|
b|---------------------------------------------------------------------------------|
g|---------------------------------------------------------------------------| x 7-|
d|---------------------------------------------------------------------------------|
a|-------7h5----------------0------------------------------------------------------|
e|--7-7------7-5-5--0--0h2----2----------------------------------------------------|

e|---------------------------------------------------------------------------------|
b|---------------------------------------------------------------------------------|
g|---------------------------------------------------------------------------| x 1-|
d|----------------7-7-7-7-7-7------------------------------------------------------|
a|-------7h5------5-5-5-5-5-5------------------------------------------------------|
e|--7-7------7-5-------------------------------------------------------------------|

*Repeat*

Song is played with Wah, fun to play, super groovy, enjoy.
Добавлено: 08.06.2013
Другие материалы по этой песне:
  • Аккорды и текст

Страница создана 08.06.2013
http://primanota.ru/misc-unsigned-bands/pond-moth-wings-chords.htm
Привет, Гость.
Предлагаем пройти революционный курс по гитаре.
Подарок от PrimaNota.Ru, забирай!