PrimaNota.ru - самый крупный в мире бесплатный архив песенных текстов, аккордов, табулатур и нот


Misc Unsigned Bands - Pinker Than You - Whats The Point - аккорды и текст

Регистрация Запомнить меня
Войти через:  Facebook Google Twitter Vk Yandex Mail.ru

Misc Unsigned Bands - Pinker Than You - Whats The Point - аккорды и текст

Печатать
Просмотров: 13
Новый альбом группы 'Черный Кузнец' по культовому сериалу 'Сверхъестественное'!
Pinker Than You - Whats The Point
Misc Unsigned Bands
-------------------------------------------------------------------------------
                             Pinker than you - Whats the point
-------------------------------------------------------------------------------
Tabbed by: Amir Shabani
Email: ameiranyt@gmail.com

Tuning: Standard



D             Am        C                    G
  Whats the point, in having when you cant keep?
D             Am        C                    G
  Whats the point, in loving when you're not loved?
D             Am        C                    G
  Whats the point, in being when you can't stay?
D             Am        C                         G
  Whats the point, in breathing when you feel this way?

Am         C           G                E
  Cause I feel, this pain, I cannot, explain
Am         C              G             E
  Maybe one day you'll see why, you see tears in my eyes
Am         C                    G           E             Am
  Maybe one day you'll understand, That i'm nothing but a man

Maybe..

Am C G E

Maybe..

Am C G E

D     Am           C              G
  Why do, when it's, just a mistake?
D     Am           C              G
  Why smile when it's always fake?
D     Am           C              G
  Why cry, if it's yet another lake?
D         Am                C                 G
  I just hope your smile, is something i'll make

D               Am   
  I'll just burn my sorrow
C              G
  There will be no tomorrow
D         Am
  No more air to borrow
C            G
  I'll give up, my pharaoh 

Am         C           G                E
  Cause I feel, this pain, I cannot, explain
Am         C              G             E
  Maybe one day you'll see why, you see tears in my eyes
Am         C                    G           E             Am
  Maybe one day you'll understand, That i'm nothing but a man

Am C G E
       I'm nothing but a man
Am C G E
       I'm nothing but a man

D              Am              C
  The heart i had you've broken
             G
  With the words you've spoken
D             Am          C
  My happy self has woken
             G
  And this knife my token

D            Am
  A ticket to paradise
C         G
  A wicket coaster ride
D              Am 
  A trigger that over rides
C               G
  A trick you call suicide


Am         C           G                E
  Cause I feel, this pain, I cannot, explain
Am         C              G             E
  Maybe one day you'll see why, you see tears in my eyes
Am         C                    G           E             Am
  Maybe one day you'll understand, That i'm nothing but a man

  
[SOLO]



D             Am        C                    G
  Whats the point, in having when you cant keep?
D             Am        C                    G
  Whats the point, in loving when you're not loved?
D             Am        C                    G
  Whats the point, in being when you can't stay?
D             Am        C                         G
  Whats the point, in breathing when you feel this way?

Solo:

e|-----------------------------------------------------------------------------------|
B|-----------------------------------------------------------------------------------|
G|-----------------------------------------------------------------------------------|
D|----------------2----2--2--2------5----5--5--5-----9----9--9--9-----7----7--7--7---|
A|----------------2----2--2--2------5----5--5--5-----9----9--9--9-----7----7--7--7---|
E|----------------0----0--0--0------3----3--3--3-----7----7--7--7-----5----5--5--5---|

And i'm finally happy

e|-----------------------------------------------------------------------------------|
B|-----------------------------------------------------------------------------------|
G|-----------------------------------------------------------------------------------|
D|--2----2--2--2------5----5--5--5-----9----9--9--9-----7----7--7--7-----------------|
A|--2----2--2--2------5----5--5--5-----9----9--9--9-----7----7--7--7-----------------|
E|--0----0--0--0------3----3--3--3-----7----7--7--7-----5----5--5--5-----------------|
                     And i'm finally free
e|-----------------------------------------------------------------------------------|
B|-----------------------------------------------------------------------------------|
G|-----------------------------------------------------------------------------------|
D|--2----2--2--2------5----5--5--5-----9----9--9--9-----7----7--7--7-----------------|
A|--2----2--2--2------5----5--5--5-----9----9--9--9-----7----7--7--7-----------------|
E|--0----0--0--0------3----3--3--3-----7----7--7--7-----5----5--5--5-----------------|
                     And i'm finally Happy
e|-----------------------------------------------------------------------------------|
B|-----------------------------------------------------------------------------------|
G|-----------------------------------------------------------------------------------|
D|--2----2--2--2------5----5--5--5-----9----9--9--9-----7----7--7--7-----------------|
A|--2----2--2--2------5----5--5--5-----9----9--9--9-----7----7--7--7-----------------|
E|--0----0--0--0------3----3--3--3-----7----7--7--7-----5----5--5--5-----------------|
                     And i'm finally free

  
  
Добавлено: 27.05.2018
Другие материалы по этой песне:
  • Аккорды и текст

Страница создана 27.05.2018
http://primanota.ru/misc-unsigned-bands/pinker-than-you-whats-point-chords.htm
Привет, Гость.
Предлагаем пройти революционный курс по гитаре.
Подарок от PrimaNota.Ru, забирай!