PrimaNota.ru - самый крупный в мире бесплатный архив песенных текстов, аккордов, табулатур и нот


Misc Unsigned Bands - Pergamum - Classical Metal X - таба

Регистрация Запомнить меня
Войти через:  Facebook Google Twitter Vk Yandex Mail.ru

Misc Unsigned Bands - Pergamum - Classical Metal X - таба

Печатать
Просмотров: 42
I copied the tabs off their myspace into a Notepad file. I also added parts that weren't 
there.
Anyway, without further ado, here it is!

Band: Pergamum
Song: Classical Metal X
Album: Feel Life's Fear (even though it's not actually on there...)

Tuning: Drop D

Bach: Ticata

e|---------------------------------------------------|
B|-------------------------------------------------5-|
G|-----------------------------------------------3---|
D|-7-5-7~~-5---------------7-5-7~~-------------5-----|
A|-----------8-7-5-4-5*~~----------7-8-4-5*--4-------|
D|---------------------------------------------------|


e|-----------------------------------------------------------|
B|-------------------------------------------14-8-11-14-8-11-|
G|-----------------------------12-6-9-12-6-9-T-------------T-|
D|---------------11-5-9-11-5-9-T-----------T-----------------|
A|-10-4-8-10-4-8-T-----------T-------------------------------|
D|-T-----------T---------------------------------------------|

e|------------------------------------------------------------------|
B|-------------------------------------------------17-11-14-17-11-14|
G|---------------------------------15-9-12-15-9-12-T---------------T|
D|-----------------14-8-11-14-8-11-T-------------T------------------|
A|-13-7-10-13-7-10-T-------------T----------------------------------|
D|-T------------T---------------------------------------------------|

e|------------------------------------------------------------------------|
B|-------------------------------------------------------20-14-17-20-14-17|
G|-------------------------------------18-12-15-18-12-15-T---------------T|
D|-------------------17-11-14-17-11-14-T---------------T------------------|
A|-16-10-13-16-10-13-T---------------T------------------------------------|
D|-T---------------T------------------------------------------------------|

e|-18~~~~~~~~~~~~~~~~~~~~-|
B|------------------------|
G|------------------------|
D|------------------------|
A|------------------------|
D|------------------------|

e|-/6-5----------------------------------------------|
B|------8-6-5-----------5h6-5h6-5h6-5h6-5h6--6\------|
G|------------7-6---6-7----------------------7\------|
D|----------------7------------------------------0~~-|
A|-----------------------------------------------0~~-|
D|-----------------------------------------------0~~-|


Tapping Run Part A

Tap the 12s.

e|---------------------|---------------------|---------------------|
B|---------------------|---------------------|---------------------|
G|---------------------|---------------------|---------------------|
D|---------------------|-----------12-5------|------12-5-12-7------|
A|-12-5-12-7-12-8-12-5-|-12-7-12-8------12-7-|-12-8-----------12-8-|
D|---------------------|---------------------|---------------------|

e|----------------|---------------------|------------------------|
B|----------------|---------------------|------------------------|
G|----------------|---------------------|------------------------|
D|-12-5-12-7-12-8-|-12-5-12-7-12-3-12-5-|------------------------|
A|----------------|---------------------|-12-7-12-8-12-5-12-7-12-|
D|----------------|---------------------|------------------------|

e|-----------------------------------------|
B|-----------------------------------------|
G|-----------------------------------------|
D|-----------------------------------------|
A|-12-4-12-5-------------------------------|
D|-----------12-7-12-8-12-5-12-7-12-3-12-5-|

e|---------------------|---------------------|---------------------|
B|---------------------|---------------------|---------------------|
G|---------------------|---------------------|---------------------|
D|---------------------|-----------12-5------|------12-5-12-7------|
A|-12-5-12-7-12-8-12-5-|-12-7-12-8------12-7-|-12-8-----------12-8-|
D|---------------------|---------------------|---------------------|

e|----------------|---------------------|------------------------|
B|----------------|---------------------|------------------------|
G|----------------|---------------------|------------------------|
D|-12-5-12-7-12-8-|-12-5-12-7-12-3-12-5-|------------------------|
A|----------------|---------------------|-12-7-12-8-12-5-12-7-12-|
D|----------------|---------------------|------------------------|

e|----------------|
B|----------------|
G|----------------|
D|----------------|
A|-12-4-12-5~~~~~-|
D|----------------|


Tapping Run Part B

Tap the 15s.

e|-----------------------|---------------------|------------------------|
B|-----------------------|---------------------|------------------------|
G|-----------------------|---------------------|------------------------|
D|-----------------------|----------15-8-------|-------15-8-15-10-------|
A|-15-8-15-10-15-11-15-8-|-15-10-11------15-10-|-15-11------------15-11-|
D|-----------------------|---------------------|------------------------|

e|------------------|
B|------------------|
G|------------------|
D|-15-8-15-10-15-11-|
A|------------------|
D|------------------|

Tapping Run Part C

Tap the 18s.

e|-----------------------|------------------------|------------------------|
B|-----------------------|------------------------|------------------------|
G|-----------------------|------------------------|------------------------|
D|-----------------------|-------------18-11------|-------18-11-18-13------|
A|18-11-18-13-18-14-18-11|-18-13-18-14-------18-13|-18-14-------------18-14|
D|-----------------------|------------------------|------------------------|

e|-------------------|
B|-------------------|
G|-------------------|
D|-18-11-18-13-18-14-|
A|-------------------|
D|-------------------|

Tapping Run Part D

e|---------------------|---------------------|---------------------|
B|---------------------|---------------------|---------------------|
G|---------------------|---------------------|---------------------|
D|---------------------|-----------12-5------|------12-5-12-7------|
A|-12-5-12-7-12-8-12-5-|-12-7-12-8------12-7-|-12-8-----------12-8-|
D|---------------------|---------------------|---------------------|

e|----------------|-----------------------------------------|
B|----------------|-----------------------------------------|
G|----------------|-----------------------------------------|
D|-12-5-12-7-12-8-|-12-5-12-7-12-3-12-5---------------------|
A|----------------|---------------------12-7-12-8-12-5-12-7-|
D|----------------|-----------------------------------------|
                  |~~~~~~~~~~~~~~~~~~~x2~~~~~~~~~~~~~~~~~~~~|

e|---------------------------------------------------------------------------|
B|---------------------------------------------------------------------------|
G|---------------------------------------------------------------------------|
D|-12-5-12-7-12-3-12-5---------------------------------------------------3-2-|
A|---------------------12-7-12-8-12-5-12-7-12-4-12-5---------------------3-2-|
D|---------------------------------------------------12-7-12-8-12-5-12-7-3-2-|
PM                                                                       . .


Beethoven: Moonlight Sonata

RHYTHM GUITAR (Clean)

e|---------------------------------------------------------|
B|---------------------------------------------------------|
G|---7-10---7-10---7-10---7-10---7-10---7-10---7-10---7-10-|
D|-7------7------7------7------7------7------7------7------|
A|---------------------------------------------------------|
D|---------------------------------------------------------|

e|------------------------------------------------------|
B|------------------------------------------------------|
G|---7-10---7-10---8-12---8-12---6-8---7-10---7-4---6-4-|
D|-8------8------8------8------7-----7------7-----5-----|
A|------------------------------------------------------|
D|------------------------------------------------------|

LEAD GUITAR (Distortion)
Comes in from the last part.

e|-------------------------------------------------|
B|-------------------------------------------------|
G|-------------------------------------------------|
D|-0~~~~~~~~~~------8~~~~~~~~~-----5~~~~-----3~~~~-|
A|-0~~~~~~~~~~-/8-7-8~~~~~~~~~-8-7-5~~~~-8-7-3~~~~-|
D|-0~~~~~~~~~~------8~~~~~~~~~-----5~~~~-----3~~~~-|

e|-------------------------------------------------------|
B|-------17br-17br-17br-10~~~-/11-8-10~~~-10~~~~-10~~~~~-|
G|-------------------------------------------------------|
D|-8-8-8-------------------------------------------------|
A|-8-8-8-------------------------------------------------|
D|-8-8-8-------------------------------------------------|
PM . . .

e|------------------------------------------------|
B|-10~~~~-10/11-10~~-8-8~~~--/18-17/18~~~-15~-/20-|
G|------------------------------------------------|
D|------------------------------------------------|
A|------------------------------------------------|
D|------------------------------------------------|

e|-------------------------------------------------|
B|-/15-17-17~~~~-17br-17br-17br-10~~~-/11-8-10*\\\-|
G|-------------------------------------------------|
D|-------------------------------------------------|
A|-------------------------------------------------|
D|-------------------------------------------------|

Pergamum: Breakdown/Riff x2

e|----------------------------------------------|
B|----------------------------------------------|
G|----------------------------------------------|
D|----------------------------------------------|
A|-5--------------7--------------8--------------|
D|---0-000-000000---0-000-000000---0-000-000000-|

e|-----------------------|
B|-----------------------|
G|-----------------------|
D|-----------------------|
A|-5h8-5h8-4h7-4h7-1-4*~-|
D|-----------------------|

e|----------------------------------------------|
B|----------------------------------------------|
G|----------------------------------------------|
D|----------------------------------------------|
A|-5--------------7--------------8--------------|
D|---0-000-000000---0-000-000000---0-000-000000-|

e|---------------------------|
B|---------------------------|
G|---------------------------|
D|---------------------------|
A|-5h8-5h8-4h7-4h7-1-8-7-4b--|
D|---------------------------|

on the second repeat add:

e|-----------------------|
B|-----------------------|
G|-----------------------|
D|-----------------------|
A|-8-8-7-5-10-10-8-7-4*~-|
D|-----------------------|

Vivaldi: Four Seasons

e|----------------------------------------------------------|
B|----------------------------------------------------------|
G|----------------------------------------------------------|
D|-12-0000-0000-0000-10-0000-0000-0000-8-0000-0000-0000-3*b-|
A|----------------------------------------------------------|
D|----------------------------------------------------------|

e|----------------------------------------------------------|
B|----------------------------------------------------------|
G|------------------------------------------------------[x3]|
D|------------------------------------------------------3*b-|
A|-12-0000-0000-0000-10-0000-0000-0000-8-0000-0000-0000-----|
D|----------------------------------------------------------|

e|----------------------------------------------------------|
B|----------------------------------------------------------|
G|----------------------------------------------------------|
D|------------------------------------------------------0~~~|
A|------------------------------------------------------0~~~|
D|-12-0000-0000-0000-10-0000-0000-0000-8-0000-0000-0000-0~~~|

Scales

Part A

e|-10-8-6--------------------------------------------|
B|--------10-8-7-------------------------------------|
G|---------------9-7-5-------7-5-3-------------------|
D|---------------------8-7-5-------7-5-4-------------|
A|---------------------------------------7-5-3-------|
D|---------------------------------------------8-7-5-|

Part B

e|15-13-11------------------------------------------------------------|
B|---------15-13-11---------------------------------------------------|
G|------------------14-12-10----------12-10-8-------------------------|
D|---------------------------13-12-10---------12-10-8-----------------|
A|----------------------------------------------------12-10-8---------|
D|------------------------------------------------------------13-12-10|

Part C

e|18-17-15---------------------------------------------------------------|
B|---------18-16-15------------------------------------------------------|
G|------------------17-15-14----------15-14-12---------------------------|
D|---------------------------17-15-13----------15-13-12------------------|
A|------------------------------------------------------15-13-12---------|
D|---------------------------------------------------------------17-15-13|

Part D

e|22-20-18---------------------------------------------------------------|
B|---------22-20-19------------------------------------------------------|
G|------------------21-19-17----------19-17-15---------------------------|
D|---------------------------20-19-17----------19-17-16------------------|
A|------------------------------------------------------19-17-15---------|
D|---------------------------------------------------------------20-19-17|

Part E

e|22-20-18------------------------------------------------------------|
B|---------22-20-19---------------------------------------------------|
G|------------------21-19-17----------19--------19--------19--------19|
D|---------------------------20-19-17----171717----171717----171717---|
A|--------------------------------------------------------------------|
D|--------------------------------------------------------------------|

Pergamum: Riff Two x2

e|------------------------------------|
B|------------------------------------|
G|------------------------------------|
D|-12-0-11-0-8-0-7-0-8-0-11-0-8-0-7-0-|
A|------------------------------------|
D|------------------------------------|

e|------------------------------------------|
B|------------------------------------------|
G|------------------------------------------|
D|-11-8-7--12-11-8--14-12-11--15-14-12-14*b-|
A|------------------------------------------|
D|------------------------------------------|

Pergamum: Riff Three x2

e|------------------------------------|
B|------------------------------------|
G|------------------------------------|
D|-12-0-11-0-8-0-7-0-8-0-11-0-8-0-7-0-|
A|-T----T----T---T---T---T----T---T---|
D|------------------------------------|

e|-----------------------------------------------------------------|
B|-----------------------------------------------------------------|
G|-----------------------------------------------------------------|
D|12-11-12-11p8p7h8h11-14-11-14-11-8p7h8h11-15-11-15-11p8p7h8h11h17|
A|T-----T--------------T-----T--------------T-----T----------------|
D|-----------------------------------------------------------------|

Then...

e|----------------------------|
B|----------------------------|
G|----------8~~~~~------------|
D|----------8~~~~~-3-3-3-0~~~-|
A|-10-10-10-6~~~~~-3-3-3-0~~~-|
D|-----------------3-3-3-0~~~-|
PM                 . . .

e|------------------------------------------|
B|------------------------------------------|
G|-------------888-5---------------101010-7-|
D|-555-6p5-555--------555-6p5-5535----------|
A|------------------------------------------|
D|------------------------------------------|
PM ...     ...        ...     ....

e|---------------------------------------------------|
B|---------------------------------------------------|
G|-1212-10-8~~1212-10-8~~1212-10-8~5-12~~131313-10~~~|
D|---------------------------------------------------|
A|---------------------------------------------------|
D|---------------------------------------------------|

e|---------------------------------|
B|---------------------------------|
G|-131313-10-----------------------|
D|-----------121212-9----------555-|
A|--------------------111111-8-555-|
D|-----------------------------555-|
PM                             ...

e|-----------------------------------------|
B|-----------------------------------------|
G|-131313-10-------------------------------|
D|-----------121212-9----------------------|
A|--------------------111111-10-8----------|
D|--------------------------------13-12-10-|

e|---------------------|
B|---------------------|
G|-------------5-7-8*~-|
D|-----------5---------|
A|---3-5-6*~-----------|
D|-5-------------------|

e|-------------------------------------------------|
B|------------66----88------1111------1313-1212-13~|
G|---5-7-8-77----99----1212------1313--------------|
D|-5-----------------------------------------------|
A|-------------------------------------------------|
D|-------------------------------------------------|

e|------------------------|
B|-15b-15b-15b-12~\8-8/20-|
G|------------------------|
D|------------------------|
A|------------------------|
D|------------------------|

Sweeping

e|8-5----------11-8-----------|
B|----7-------------10--------|
G|------8-5h8----------11-8h11|
D|----------------------------|
A|----------------------------|
D|----------------------------|

e|14-11--------------17-14------------|
B|------13-----------------16---------|
G|---------14-11h14-----------17-14h17|
D|------------------------------------|
A|------------------------------------|
D|------------------------------------|

e|-20-17-------------22b(23)|
B|-------19-----------------|
G|----------20-17h20--------|
D|--------------------------|
A|--------------------------|
D|--------------------------|

Pergamum: Breakdown x2

e|------------------------------------------------|
B|------------------------------------------------|
G|------------------------------------------------|
D|------------------------------------------------|
A|------------T-----T-----T------T-----T-----T----|
D|-0-0-0-0-00-15-12-15-12-15-12--14-11-14-11-14-11|

e|--------------------|
B|--------------------|
G|--------------------|
D|--------------------|
A|------------5---4---|
D|-0-0-0-0-00---8---7-|

Pergamum: Riff Three

Part A

e|--------------------------------------------|
B|--------------------------------------------|
G|--------------------------------------------|
D|--------------------------------------------|
A|-----------------10--12--8--10--------------|
D|-0000000000000000--00--00-00--00-13-12-10\8-|

Part B

e|------------------------------------|
B|------------------------------------|
G|------------------------------------|
D|------------------------------------|
A|-----------------10--12--8--10--7*b-|
D|-0000000000000000--00--00-00--00----|

Part C x2

e|--------------------------------------------|
B|--------------------------------------------|
G|--------------------------------------------|
D|--------------------------------------------|
A|---10--12--8--10--7--8--5--7--4--5--1--4*~~-|
D|-00--00--00-00--00-00-00-00-00-00-00-00-----|

Pergamum: Solo

Big Arpeggio Sweep

e|--------------13h17p13--------------|
B|------------15--------15------------|
G|----------14------------14----------|
D|--------15----------------15--------|
A|-12~~/17--------------------17-12~~-|
D|------------------------------------|

Diminished Sweeps

e|15-12----------12-9---------9-6-------6-3-------|
B|-----14------------11----------8---------5------|
G|-------15-12\4-------12-9\6-----9-6\3-----6-3/12|
D|------------------------------------------------|
A|------------------------------------------------|
D|------------------------------------------------|

Tapping

e|------------------------------------|
B|------------------------------------|
G|15-12-15-12-15-12--14-11-14-11-14-11|
D|T-----T-----T------T-----T-----T----|
A|------------------------------------|
D|------------------------------------|

e|------------------------------|
B|------------------------------|
G|12-9-12-9-12-9--10-7-10-7-10-7|
D|T----T----T-----T----T----T---|
A|------------------------------|
D|------------------------------|

e|---------------------------------|
B|---------------------------------|
G|12-9-12-9-12-9--14-10-14-10-14-10|
D|T----T----T-----T-----T-----T----|
A|---------------------------------|
D|---------------------------------|

e|------------------------------------|
B|------------------------------------|
G|15-10-15-10-15-10--10-17-10-17-10-17|
D|T-----T-----T---------T-----T-----T-|
A|------------------------------------|
D|------------------------------------|

Fast Bit

Part A

e|--------------------------------------------------------------|
B|--------------------------------------------------------------|
G|--------------------------------------------------------------|
D|13-14-12-15-14-12-17-15-14-17-15-14-19-17-15-20-19-17-20-19-17|
A|--------------------------------------------------------------|
D|--------------------------------------------------------------|

Part B

e|--------------------------|
B|--------------------------|
G|--------------------------|
D|20-19-17-19-17-15-17-15-14|
A|--------------------------|
D|--------------------------|

Part C

e|--------------------------------------------------|
B|--------------------------------------------------|
G|12-14-15-14-12----14-12-------12------------------|
D|---------------15-------15-14----15-14-12-15-14-12|
A|--------------------------------------------------|
D|--------------------------------------------------|

e|-----------------------------|
B|-----------------------------|
G|-----------------------------|
D|---14-12----------------12-14|
A|16-------16-13-12-13-16------|
D|-----------------------------|

Last Breakdown/Riff x4

e|-------------------------------|
B|-------------------------------|
G|-------------------------------|
D|-------------------------------|
A|-------------------------------|
D|-00-0000-0000-0000-00-00000000-|

Part A

e|--------------------------------|
B|--------------------------------|
G|14--14--14--14--14--14--14--14--|
D|--12--12--12--12--12--12--12--12|
A|--------------------------------|
D|--------------------------------|

Part B

e|--------------------------------|
B|--------------------------------|
G|15--15--15--15--15--15--15--15--|
D|--12--12--12--12--12--12--12--12|
A|--------------------------------|
D|--------------------------------|

Part C

e|----------------|--------------------------------|
B|----------------|--------------------------------|
G|15--15--15--15--|14--14--14--14--14--14--14--14--|
D|--12--12--13--13|--12--12--12--12--12--12--12--12|
A|----------------|--------------------------------|
D|----------------|--------------------------------|

e|--------------------------------|----|
B|--------------------------------|----|
G|18--18--18--18--18--18--18--18--|----|
D|--12--12--12--12--12--12--12--12|-12-|
A|--------------------------------|-12-|
D|--------------------------------|-12-|

OUTRO

Part A

e|---------------------|---------------------|---------------------|
B|---------------------|---------------------|---------------------|
G|---------------------|---------------------|---------------------|
D|---------------------|-----------12-5------|------12-5-12-7------|
A|-12-5-12-7-12-8-12-5-|-12-7-12-8------12-7-|-12-8-----------12-8-|
D|---------------------|---------------------|---------------------|

e|----------------|---------------------|
B|----------------|---------------------|
G|----------------|---------------------|
D|-12-5-12-7-12-8-|-12-5-12-7-12-3-12-5-|
A|----------------|---------------------|
D|----------------|---------------------|

Part B

e|-----------------------|---------------------|------------------------|
B|-----------------------|---------------------|------------------------|
G|-----------------------|---------------------|------------------------|
D|-----------------------|----------15-8-------|-------15-8-15-10-------|
A|-15-8-15-10-15-11-15-8-|-15-10-11------15-10-|-15-11------------15-11-|
D|-----------------------|---------------------|------------------------|

e|------------------|
B|------------------|
G|------------------|
D|-15-8-15-10-15-11-|
A|------------------|
D|------------------|

Part C

e|-----------------------|------------------------|------------------------|
B|-----------------------|------------------------|------------------------|
G|-----------------------|------------------------|------------------------|
D|-----------------------|-------------18-11------|-------18-11-18-13------|
A|18-11-18-13-18-14-18-11|-18-13-18-14-------18-13|-18-14-------------18-14|
D|-----------------------|------------------------|------------------------|

e|-------------------|
B|-------------------|
G|-------------------|
D|-18-11-18-13-18-14-|
A|-------------------|
D|-------------------|

Part D

e|-----------------------|------------------------|------------------------|
B|-----------------------|------------------------|------------------------|
G|-----------------------|------------------------|------------------------|
D|-----------------------|-------------20-14------|-------20-14-20-16------|
A|20-14-20-16-20-17-20-14|-20-16-20-17-------20-16|-20-17-------------20-17|
D|-----------------------|------------------------|------------------------|

e|-------------------|
B|-------------------|
G|-------------------|
D|-20-14-20-16-20-17-|
A|-------------------|
D|-------------------|

Part E

e|---------------------|---------------------|---------------------|
B|---------------------|---------------------|---------------------|
G|---------------------|---------------------|---------------------|
D|---------------------|-----------12-5------|------12-5-12-7------|
A|-12-5-12-7-12-8-12-5-|-12-7-12-8------12-7-|-12-8-----------12-8-|
D|---------------------|---------------------|---------------------|

e|----------------|-----------------------------------------|
B|----------------|-----------------------------------------|
G|----------------|-----------------------------------------|
D|-12-5-12-7-12-8-|-12-5-12-7-12-3-12-5---------------------|
A|----------------|---------------------12-7-12-8-12-5-12-7-|
D|----------------|-----------------------------------------|
                  |~~~~~~~~~~~~~~~~~~~x2~~~~~~~~~~~~~~~~~~~~|

e|---------------------------------------------------------------------------|
B|---------------------------------------------------------------------------|
G|---------------------------------------------------------------------------|
D|-12-5-12-7-12-3-12-5---------------------------------------------------3-2-|
A|---------------------12-7-12-8-12-5-12-7-12-4-12-5---------------------3-2-|
D|---------------------------------------------------12-7-12-8-12-5-12-7-3-2-|
PM                                                                       . .

e|------------------------------------------------------------|
B|------------------------------------------------------------|
G|------------------------------------------------------------|
D|-0~~~~~~~~~~~~~~~~~~~~~~~-0-00--1~~~~~~~~~~~~~~~~~~~~~~-0-0-|
A|-0~~~~~~~~~~~~~~~~~~~~~~~-0-00--1~~~~~~~~~~~~~~~~~~~~~~-0-0-|
D|-0~~~~~~~~~~~~~~~~~~~~~~~-0-00--1~~~~~~~~~~~~~~~~~~~~~~-0-0-|
PM                          . ..

Rewritten from tabs from Pergamum's MySpace and some things added by: Disturbed_EMG of 
If you see this anywhere but UG, it's been stolen.
Добавлено: 25.10.2013
Другие материалы по этой песне:
  • Аккорды и текст

Страница создана 25.10.2013
http://primanota.ru/misc-unsigned-bands/pergamum-classical-metal-x-chords.htm
Привет, Гость.
Предлагаем пройти революционный курс по гитаре.
Подарок от PrimaNota.Ru, забирай!