PrimaNota.ru - самый крупный в мире бесплатный архив песенных текстов, аккордов, табулатур и нот


Misc Unsigned Bands - Ozzy Griffin - Blood-clotted Cream - таба

Регистрация Запомнить меня
Войти через:  Facebook Google Twitter Vk Yandex Mail.ru

Misc Unsigned Bands - Ozzy Griffin - Blood-clotted Cream - таба

Печатать
Просмотров: 33
HI im ozzy
this is the first time im tabbed something out on 'UG' so sorry if its a bit crap
this is a song i wrote called blood-clotted cream!! its fun to play along with if
you know the rythme.
hope you enjoy it! i will get the audio put up somehow i hope but i dont know how at the 
so stick with me! :P

there are two guitar parts in this son but ill just put guitar 2 in now and again... coz 
will take ages otherwise!! lol

the notes with the stars are pinched harmonics ok...

AND ITS IN "DROP C"


INTRO (slow, gentle and clean with a tad of delay)
e|------------------------------------------|
B|------------------------------------------|
G|----------------023-----------------------|
D|---3 2--3 0----32-------32    30--32---0--|
A|----------------------------------3--0----|
E|-0 0----0 ---0 -------0 0---0-- 0---------|

e|--------------------------------------------|
B|--------------------------------------------|
G|----------------------------53 ----2--------|
D|---32---3 0---32 2-----32-0-----0-3----2-0--|
A|--- ---------------------------------3-- 0--|
E|-0 0---0----0-------00 ------------------0--|

there is a long break...
where there is just the sound of wind, soft drums and creepy singing  :D

then when the guitar comes back in it is faster and there is loads of destortion!

bass: 8        Mid: 3       Treble: 9       Gain: 10


FAST RIFF
e|---------------------------------------------------------------|
B|---------------------------------------------------------------|
G|---------------------------------------------------------------|
D|-------5*--3h5p3-2-2h3-----------------------------------(x3)--|
A|--3h5----------------------------------------------------------|
E|-----00--00-----0-0--------------------------------------------|

then... guitar 1 plays interlude chords
e|-----------------------------------------------------------------------------------|
B|-----------------------------------------------------------------------------------|
G|-----------------------------------------------------------------------------------|
D|--5--2-3-5-3----------------------------------------------(x1)---------------------|
A|--5--0-1-3-3-----------------------------------------------------------------------|
E|--5--------3-----------------------------------------------------------------------|


and gitar 2 plays rings on into first chord of the chorus
e|------------------------------------------------------------------------------------|
B|------------------------------------------------------------------------------------|
G|------------------------------------------------------------------------------------|
D|--5-5/8 7*--------------------------------------------------------------------------|
A|------------------------------------------------------------------------------------|
E|------------------------------------------------------------------------------------|


vvvvvv  CHORUS  vvvvvv

e|-----------------------------------------------------------------------------|
B|-----------------------------------------------------------------------------|
G|-----------------------------------------------------------------------------|
D|--0-5/7/9\7-5-3-------8h10----8h10p8-0--5/7/9\7-5-3-/5-555-----\-3-33-----2--|
A|--0-3/5/7\5-3-3-/-8--8-------8-------0--3/5/7\5-3-3-/5-555h7p5-\-3-33h5p3-2--|
E|--0-----------3-/-8-8-------8--------0----------- 3-/5-555h7p5 \-3-33h5p3-2--|

e|----------------------------------------------------------------------------------|
B|----------------------------------------------------------------------------------|
G|----------------------------------------------------------------------------------|
D|--0-5/7/9\7-5-3-------8h10----8h10p8-0--5/7/9\7-5-3----555---------77------3---0--|
A|--0-3/5/7\5-3-3-/-8--8-------8-------0--3/5/7\5-3-3-/5-555h7p5-\-7-77h8p7--3p2p0--|
E|--0-----------3-/-8-8-------8--------0----------- 3-/5-555h7p5 \-7-77h8p7--3p2p0--|

BRIDGE
e|-------------------------------------------------------------------------------|
B|-------------------------------------------------------------------------------|
G|-----------77-----------------------------------------------------(x1) --------|
D|-0-0000000-7777---3--33-  3h5p3---2---3p2h3------------------------------------|
A|-0-0000000-5577-0-3-033----------2-2-------------------------------------------|
E|-0-0000000---77-0-3-033----------2---------------------------------------------|

e|---------------------------------------------------------------------------------|
B|---------------------------------------------------------------------------------|
G|-----------77----------------------------------------------------  (x3)  --------|
D|-0-00--000-7777---3--33-  3h5p3---2---3p2h3/7--------------------- --------------|
A|-0-00--000-5577-0-3-033----------2-2---------------------------------------------|
E|-0-00--000---77-0-3-033----------2-----------------------------------------------|


i tried tabbing out the verse but it kept messing up sozzz




 LYRICS

verse 1:
the longer im with you
the less you care
i wonna be with you
but its not fair
Its fustrating to see you smile with another guy
i wonna scream and shout
LET IT OUT, coz im feeling like...


CHORUS:

daemons
are trapped in me
broken free, controlling the
something
thats twisting me mockingly
crushing my face into the ground

...cant remember the rest of the words XD

but you guys are guitarists
SO ITS OK!

thanks a lot!

OZZY G xx
Добавлено: 10.10.2013
Другие материалы по этой песне:
  • Аккорды и текст

Страница создана 10.10.2013
http://primanota.ru/misc-unsigned-bands/ozzy-griffin-blood-clotted-cream-chords.htm
Привет, Гость.
Предлагаем пройти революционный курс по гитаре.
Подарок от PrimaNota.Ru, забирай!