PrimaNota.ru - самый крупный в мире бесплатный архив песенных текстов, аккордов, табулатур и нот


Misc Unsigned Bands - Ozzmium - Gods Own Shadow - таба

Регистрация Запомнить меня
Войти через:  Facebook Google Twitter Vk Yandex Mail.ru

Misc Unsigned Bands - Ozzmium - Gods Own Shadow - таба

Печатать
Просмотров: 40
-------------------------------------------------------------------------------
                             Ozzmium - Gods Own Shadow
-------------------------------------------------------------------------------
Tabbed by: Last_In_Line44 (Gerdy)
Email: Last_in_Line44@hotmail.com
Tuning: Drop C

This Song Is By A Local Northern Irish Metal Band & The song itself has become very popular
& a fan favourite so i thought id upload the tab.

These are ALL the basic rythem parts you know to know in order to play the song, work out
the timing for yourself. Its a Preety Basic Song.

http://www.youtube.com/watch?v=ZkmoQm516GM thats the video for this song.

intro (Clean)

"They'll Say...."

D|---------------------------------------------------------------------------|
A|---------------------------------------------------------------------------|
F|---------------------------------------------------------------------------|
C|-------2-3--0-----------------7---------------5----------------------------|
G|----0---------------------3----------------5------5------------------------|
C|--0-------------------3-----------------5----------------------------------|

D|---------------------------------------------------------------------------|
A|---------------------------------------------------------------------------|
F|---------------------------------------------------------------------------|
C|-------2-3--0-----------------3---------------5----------------------------|
G|----0---------------------3-------3---------5------5-----------------------|
C|--0-------------------3-----------------5----------------------------------|

Distorted Intro


D|---------------------------------------------------------------------------|
A|---------------------------------------------------------------------------|
F|---------------------------------------------------------------------------|
C|----0-----0-0-0----0-0-0----0-----6----------1-----------------------------|
G|----0-----0-0-0----0-0-0----0-----6-Slide Up-1-----------------------------|
C|----0-----0-0-0----0-0-0----0-----6----------1-----------------------------|

D|---------------------------------------------------------------------------|
A|---------------------------------------------------------------------------|
F|---------------------------------------------------------------------------|
C|----0-----0-0-0----0-0-0----0-----6h76h------------------------------------|
G|----0-----0-0-0----0-0-0----0-----6h76h------------------------------------|
C|----0-----0-0-0----0-0-0----0-----6h76h------------------------------------|

D|---------------------------------------------------------------------------|
A|---------------------------------------------------------------------------|
F|---------------------------------------------------------------------------|
C|----0-----0-0-0----0-0-0----0-----6----------1-----------------------------|
G|----0-----0-0-0----0-0-0----0-----6-Slide Up-1-----------------------------|
C|----0-----0-0-0----0-0-0----0-----6----------1-----------------------------|

D|---------------------------------------------------------------------------|
A|---------------------------------------------------------------------------|
F|---------------------------------------------------------------------------|
C|----0-----0-0-0----0-0-0----0----------------------------------------------|
G|----0-----0-0-0----0-0-0----0----------------------------------------------|
C|----0-----0-0-0----0-0-0----0----ph5---ph3---------------------------------|

Verse

D|---------------------------------------------------------------------------|
A|---------------------------------------------------------------------------|
F|---------------------------------------------------------------------------|
C|---------------------------------------------------------------------------|
G|----8/5--------------8/5----8/5----8/5------7/4--------------7/4-----------|
C|--------00-00-00-00------00-----00------00-------00--00--00-------00-------|

D|---------------------------------------------------------------------------|
A|---------------------------------------------------------------------------|
F|---------------------------------------------------------------------------|
C|---------------------------------------------------------------------------|
G|----7/4------8/5---------------8/5------8/5-----7/4------------------------|
C|--------00--------00-00-00-00-------00-------00------00-00-00--------------|

D|---------------------------------------------------------------------------|
A|---------------------------------------------------------------------------|
F|---------------------------------------------------------------------------|
C|---------------------------------------------------------------------------|
G|---------------------------------------------------------------------------|
C|----00--5-ph3--------------------------------------------------------------|

 Bridge

"I can See God...."
(this is palm muted for the first ten seconds)
D|---------------------------------------------------------------------------|
A|---------------------------------------------------------------------------|
F|---------------------------------------------------------------------------|
C|-0-3-2-1------0-3-2-1------0-3-2-1---0-3-2-1------0-3-2-1------0-3-2-1-----|
G|---------------------------------------------------------------------------|
C|---------------------------------------------------------------------------|

D|---------------------------------------------------------------------------|
A|---------------------------------------------------------------------------|
F|---------------------------------------------------------------------------|
C|-0-3-2-1------0-3-2-1------0-3-2-1---0-3-2-1------0-3-2-1------0-3-2-1-----|
G|---------------------------------------------------------------------------|
C|---------------------------------------------------------------------------|

part 2 of bridge

D|---------------------------------------------------------------------------|
A|---------------------------------------------------------------------------|
F|---------------------------------------------------------------------------|
C|--0--3--2--1--------0--3--2--1--------0--3--2--2--1--------0--3--2--1------|
G|--0--3--2--1--------0--3--2--1--------0--3--2--2--1--------0--3--2--1------|
C|--0--3--2--1--------0--3--2--1--------0--3--2--2--1--------0--3--2--1------|


Riff

D|---------------------------------------------------------------------------|
A|---------------------------------------------------------------------------|
F|---------------------------------------------------------------------------|
C|---------------------------------------------------------------------------|
G|------12/11-----------8/5--------7/5--------7/8----------------------------|
C|--00---------00-------------00---------00----------------------------------|

 ph = Pinched Harmonics

 / = Hammer-on & Slide Ups

Добавлено: 22.08.2013
Другие материалы по этой песне:
  • Аккорды и текст

Страница создана 22.08.2013
http://primanota.ru/misc-unsigned-bands/ozzmium-gods-own-shadow-chords.htm
Привет, Гость.
Предлагаем пройти революционный курс по гитаре.
Подарок от PrimaNota.Ru, забирай!