PrimaNota.ru - самый крупный в мире бесплатный архив песенных текстов, аккордов, табулатур и нот


Misc Unsigned Bands - Ooee Ooee - Zoheb Hassan - таба

Регистрация Запомнить меня
Войти через:  Facebook Google Twitter Vk Yandex Mail.ru

Misc Unsigned Bands - Ooee Ooee - Zoheb Hassan - таба

Печатать
Просмотров: 68
Title: Ooee Ooee
Singer: Zoheb Hassan
Music Director: Biddu
Album: Star

Tabbed by Shakti
Email: shakti_102@yahoo.co.uk


Intro solo:

   F          Dm       Gm          C
e|-----------------------------------------------------|
B|---------------------------8-6-----------------------|
G|--------10--------7------7-----7-9--9-9--7-9-9-10-12-|
D|---7-10---------7----5-8-----------------------------|
A|-8----------5-8--------------------------------------|
E|-----------------------------------------------------|

Dm        A#          C
Ooee ooee chori chori baatein ho

Dm        A#        C
Ooee ooee aisi mulaaqatein ho

Dm        A#          C
Ooee ooee sapno ki baaratein ho

A#
Duniya waale to yunhi hai

C           C   Dm C
Jalne waale hum tumse


F
Ek do kehne bhi do

Dm
Teen chaar ho gaya pyar

A#                    C
Main to chala jaise bahaar


Repeat this solo after every "ooee ooee"

e|----------|
B|----------|
G|----------|
D|----------|
A|-------5--|
E|-8-5-8----|

The same chords pattern goes throughout the whole song
Добавлено: 26.10.2013
Другие материалы по этой песне:
  • Аккорды и текст

Страница создана 26.10.2013
http://primanota.ru/misc-unsigned-bands/ooee-ooee-zoheb-hassan-chords.htm
Привет, Гость.
Предлагаем пройти революционный курс по гитаре.
Подарок от PrimaNota.Ru, забирай!