PrimaNota.ru - самый крупный в мире бесплатный архив песенных текстов, аккордов, табулатур и нот


Misc Unsigned Bands - One Year Later - Shapeshifter - таба

Регистрация Запомнить меня
Войти через:  Facebook Google Twitter Vk Yandex Mail.ru

Misc Unsigned Bands - One Year Later - Shapeshifter - таба

Печатать
Просмотров: 53
Okay guys so this is my first tab so if there are any errors in this, please let me know. Thanks.

Tuning - Drop B F# B E G# Db


Intro/verse (0:07 - 0:21)

Db|-----------------------------------|
G#|-----------------------------------|
E |-----------------------------------| It is a twelve not a one and two.
B |-----------------------------------| x4
F#|-----------------------------------|
B |-00-00-012-00-00-00-012-00-00-0000-|
                                 ....    

Breakdown 1 (0:22-0:29)

Db|----------------------------------------------|
G#|----------------------------------------------|
E |----------------------------------------------|
B |----------------------------------------------|
F#|-000000-----0000-00-0--000000-----------------|
B |-000000--0--0000-00-0--000000--0-00-012-00-00-|
    ......     .... .. .  ...... 
  
Breakdown 1 pt.2 (0:29-0:35)

Db|---------------------------------------------------|
G#|---------------------------------------------------| 
E |---------------------------------------------------| 
B |---------------------------------------------------| 
F#|-0000000000-----0000-00-0-000000-00-00-00-0-0-0-0--|
B |-0000000000--0--0000-00-0-000000-00-00-00-0-0-0-0--|
    ..........     .... .. . ...... .. .. .. . . . .

Chorus (0:36-1:06) 

Db|----------------------------------------------------------|
G#|----------------------------------------------------------|
E |----------------------------------------------------------|
B |-000-0--000000000-0--00000000-8888-88888888-8888-88888888-|
F#|-000-0--000000000-0--00000000-8888-88888888-8888-88888888-|
B |-000000-000000000000-00000000-8888-88888888-8888-88888888-|
    ... .  ......... .  ........ . .  ........ . .  ........

Db|-----------------------------------------|
G#|-----------------------------------------|
E |-----------------------------------------| x2
B |-333333-3-3333-33-3-3-555555-5-5555-55-5-|
F#|-333333-3-3333-33-3-3-555555-5-5555-55-5-|
B |-333333-3-3333-33-3-3-555555-5-5555-55-5-|
    ......   .... .. .   ......   .... .. .

Verse (1:07-1:21)

Db|-----------------------------------|
G#|-----------------------------------| 
E |-----------------------------------| 
B |-----------------------------------| x4
F#|-----------------------------------|
B |-00-00-012-00-00-00-012-00-00-0000-|
                                 ....  
Breakdown 2 (1:23-1:37)

Db|-------------------------------------------------------------------------|
G#|-------------------------------------------------------------------------|
E |-------------------------------------------------------------------------|
B |-000000---0-0-0---000000---000000-0---000000---0-0-0---000000---000000-0-| 
F#|-000000---0-0-0---000000---000000-0---000000---0-0-0---000000---000000-0-|
B |-000000---0-0-0---000000---000000-0---000000---0-0-0---000000---000000-0-|
    ......   . . .   ......   ...... .   ......   . . .   ......   ...... .

Chorus (1:51-2:20)

Db|----------------------------------------------------------|
G#|----------------------------------------------------------|
E |----------------------------------------------------------|
B |-000-0--000000000-0--00000000-8888-88888888-8888-88888888-|
F#|-000-0--000000000-0--00000000-8888-88888888-8888-88888888-|
B |-000000-000000000000-00000000-8888-88888888-8888-88888888-|
    ... .  ......... .  ........ . .  ........ . .  ........

Db|-----------------------------------------|
G#|-----------------------------------------|
E |-----------------------------------------| x2
B |-333333-3-3333-33-3-3-555555-5-5555-55-5-|
F#|-333333-3-3333-33-3-3-555555-5-5555-55-5-|
B |-333333-3-3333-33-3-3-555555-5-5555-55-5-|
    ......   .... .. .   ......   .... .. .

Fill (2:21-2:27)

Db|-------------------|
G#|-------------------|
E |-5~--5~--5~--5~--5-|
B |-3~--3~--3~--3~--3-| 
F#|-3~--3~--3~--3~--3-|
B |-3~--3~--3~--3~--3-|

Breakdown 3 pt.1 (2:28-2:47)

Db|-----------------------------------------|
G#|-----------------------------------------|
E |-----------------------------------------|
B |-----------------------------------------| x6 
F#|-000000-00-00-000000--3------------------|
B |-000000-00-00-000000-0-0-1---------------|
    ...... .. .. ...... . .  

Breakdown 3 pt.2 (2:48-2:53) 

Db|-----------------------------------------|
G#|-----------------------------------------|
E |-----------------------------------------| Same thing but no palm mutes
B |-----------------------------------------| x2 
F#|----------------------3------------------|
B |-000000-00-00-000000-0-0-1---------------|

Breakdown 3 pt.3 (2:54-3:00)

Db|------------------------------------------------------------|
G#|------------------------------------------------------------|
E |------------------------------------------------------------|
B |---------------------------------------------------5*-------| 
F#|-000000-00-00-000000--3----000000-00-00-000000--3----0------|
B |-000000-00-00-000000-0-0-1-000000-00-00-000000-0-0---0------|
    ...... .. .. ...... . .   ...... .. .. ...... . .   .

Fill 2 (3:04-3:11)

Db|-----------------------------------|
G#|-----------------------------------|
E |-----------------------------------|
B |-----------------------------------|
F#|-0--000000--0-0-0--000000--00000-0-|
B |-0--000000--0-0-0--000000--00000-0-|
    .  ......  . . .  ......  ..... .

Chorus (3:12-3:44)

Db|-----------------------------------------|
G#|-----------------------------------------|
E |-----------------------------------------| Jump in at this point at 3:19
B |-333333-3-3333-33-3-3-555555-5-5555-55-5-| then just play out the chorus
F#|-333333-3-3333-33-3-3-555555-5-5555-55-5-| from the beginning
B |-333333-3-3333-33-3-3-555555-5-5555-55-5-|
    ......   .... .. .   ......   .... .. .

Db|----------------------------------------------------------|
G#|----------------------------------------------------------|
E |----------------------------------------------------------|
B |-000-0--000000000-0--00000000-8888-88888888-8888-88888888-|
F#|-000-0--000000000-0--00000000-8888-88888888-8888-88888888-|
B |-000000-000000000000-00000000-8888-88888888-8888-88888888-|
    ... .  ......... .  ........ . .  ........ . .  ........

Db|-----------------------------------------|
G#|-----------------------------------------|
E |-----------------------------------------|
B |-333333-3-3333-33-3-3-555555-5-5555-55-5-|
F#|-333333-3-3333-33-3-3-555555-5-5555-55-5-|
B |-333333-3-3333-33-3-3-555555-5-5555-55-5-|
    ......   .... .. .   ......   .... .. .

Hope you guys like this, I tried to walk you through it as much as possible so if 
you want you can tell me if it was helpful or not
Добавлено: 18.07.2013
Другие материалы по этой песне:
  • Аккорды и текст

Страница создана 18.07.2013
http://primanota.ru/misc-unsigned-bands/one-year-later-shapeshifter-chords.htm
Привет, Гость.
Предлагаем пройти революционный курс по гитаре.
Подарок от PrimaNota.Ru, забирай!