PrimaNota.ru - самый крупный в мире бесплатный архив песенных текстов, аккордов, табулатур и нот


Misc Unsigned Bands - New Holland - Inside Out - таба

Регистрация Запомнить меня
Войти через:  Facebook Google Twitter Vk Yandex Mail.ru

Misc Unsigned Bands - New Holland - Inside Out - таба

Печатать
Просмотров: 39
-----------------------------------------------------------------------------------
				Inside Out - New Holland
					Josh
-----------------------------------------------------------------------------------
Song Name:	Inside Out
Band:		New Holland
Tabbed by:	Josh

Tuning: Standard (EADGBe)

Intro (Electric Guitar 1) (6x)
|-----------------------------------------|
|-----------------------------------------|
|-----------------------------------------|
|-----10-10-----10-10-----10-10-----10-10-|
|-----------------------------------------|
|-8-8-------8-8-------8-8-------8-8-------|

----------------------------------|
----------------------------------|
------5-5-----5-5-----5-5---5---7-|
----------------------------------|
----------------------------------|
--4-4-----4-4-----4-4-----4---6---|

(Electric Guitar 2)
|--------------------------------------------------------|
|--------------------------------------------------------|
|--------------------------------------------------------|
|-13-13--13-13--13-13--12-12--13-13--13-13--13-13--15-15-|
|--------------------------------------------------------|
|--------------------------------------------------------|
*Note: This guitar kicks in after the first guitar has done the intro once.

|--------------------------------------------------------------------------|
|--------------------------------------------------------------------------|
|--------------------------------------------------------------------------|
|-13-13-13--13-13-13--13-12-12-12--13-13-13--13-13-13--13-15-15b16b15-15-13|
|--------------------------------------------------------------------------|
|--------------------------------------------------------------------------|

|---------------------------------------------------|
|---------------------------------------------------|
|---------------------------------------------------|
|-13-13-13--13-13-13--13-12-12-12--13-13-13--15b16*-|
|---------------------------------------------------|
|---------------------------------------------------|
*Note: This 15b16 is slow tremolo picked.

|--------------------------------------------------------------------------------------------|
|--------------------------------------------------------------------------------------------|
|--------------------------------------------------------------------------------------------|
|-------15-13-15-13--------15-13-15b16b15-15-13-----------15-13-15-13--------15-15--17-17-17-|
|-15-15--------------15-15--------------------------11-11--------------11-11-----------------|
|--------------------------------------------------------------------------------------------|

|--------------------------------------------------------------------------|
|--------------------------------------------------------------------------|
|-------------------------------------------------------------------17b18*-|
|-------15-13-15-13--------15-13-15b16b15-15-13-------15-13-15-13----------|
|-15-15--------------15-15----------------------11-11----------------------|
|--------------------------------------------------------------------------|
*Note: This 17b18 is slow tremolo picked.

Verse (Electric Guitar 1) (2x)
|---------------|
|---------------|
|(16x)----(16x)-|
|-10-------6----|
|-10-------6----|
|-8--------4----|

Chorus (Electric Guitar 1) (2x)
|---------------|
|---------------|
|(16x)----(16x)-|
|-10-------6----|
|-10-------6----|
|-8--------4----|

(Electric Guitar 2)
|--------------------------------------------------------------------------------------------|
|--------------------------------------------------------------------------------------------|
|--------------------------------------------------------------------------------------------|
|-------15-13-15-13--------15-13-15b16b15-15-13-----------15-13-15-13--------15-15--17-17-17-|
|-15-15--------------15-15--------------------------11-11--------------11-11-----------------|
|--------------------------------------------------------------------------------------------|

|--------------------------------------------------------------------------|
|--------------------------------------------------------------------------|
|-------------------------------------------------------------------17b18*-|
|-------15-13-15-13--------15-13-15b16b15-15-13-------15-13-15-13----------|
|-15-15--------------15-15----------------------11-11----------------------|
|--------------------------------------------------------------------------|
*Note: This 17b18 is slow tremolo picked.

Bridge (Electric Guitar 2) (3x)
|-----------------------------------------------------------------------|
|------8--------8--------8--------8-------8-------8--------6--------6---|
|----8---8----8---8----8---8----8---8---8---8---8---8----8---8----8---8-|
|-10-------10-------10-------10-------9-------9-------------------------|
|-----------------------------------------------------10-------10-------|
|-----------------------------------------------------------------------|

-----------------------------------------------------------------|
------9-------9-------9-------9-------9-------9-------9-------9--|
----8---8---8---8---8---8---8---8---8---8---8---8---8---8------8-|
--6-------6-------6-------6-----------------------8-------9-9----|
----------------------------------8-------8----------------------|
-----------------------------------------------------------------|

Breakdown (Electric Guitar 1) (3x)
|-------------------------------------------------------|
|-------------------------------------------------------|
|(16x)----(8x)----(8x)----(16x)----(8x)----(4x)----(4x)-|
|-10-------9-------5-------6--------3-------8-------9---|
|-10-------9-------5-------6--------3-------8-------9---|
|-8--------7-------3-------4--------1-------6-------7---|

(Electric Guitar 2) (3x)
|(16x)----(8x)----(8x)----(16x)----(8x)----(4x)----(4x)-|
|-8--------8-------6-------9--------9-------9-------9---|
|-8--------8-------8-------8--------8-------8-------8---|
|-10-------9---------------6----------------8-------9---|
|------------------10---------------8-------------------|
|-------------------------------------------------------|

Solo (Electric Guitar 2)
|--------------------------------------------------------------------------------------------|
|--------------------------------------------------------------------------------------------|
|--------------------------------------------------------------------------------------------|
|-------15-13-15-13--------15-13-15b16b15-15-13-----------15-13-15-13--------15-15--17-17-17-|
|-15-15--------------15-15--------------------------11-11--------------11-11-----------------|
|--------------------------------------------------------------------------------------------|

|--------------------------------------------------------------------------|
|--------------------------------------------------------------------------|
|-------------------------------------------------------------------17b18*-|
|-------15-13-15-13--------15-13-15b16b15-15-13-------15-13-15-13----------|
|-15-15--------------15-15----------------------11-11----------------------|
|--------------------------------------------------------------------------|
*Note: This 17b18 is slow tremolo picked.

Verse (Electric Guitar 1) (2x)
|---------------|
|---------------|
|(16x)----(16x)-|
|-10-------6----|
|-10-------6----|
|-8--------4----|

Chorus (Electric Guitar 1) (2x)
|---------------|
|---------------|
|(16x)----(16x)-|
|-10-------6----|
|-10-------6----|
|-8--------4----|

Breakdown (Electric Guitar 1)
|-------------------------------------------------------|
|-------------------------------------------------------|
|(16x)----(8x)----(8x)----(16x)----(8x)----(4x)----(4x)-|
|-10-------9-------5-------6--------3-------8-------9---|
|-10-------9-------5-------6--------3-------8-------9---|
|-8--------7-------3-------4--------1-------6-------7---|

|-------------------------------------------------------------|
|-------------------------------------------------------------|
|(16x)----(8x)----(8x)----(16x)----(8x)----(4x)----(4x)-------|
|-10-------9-------5-------6--------3-------8-------9------10~|
|-10-------9-------5-------6--------3-------8-------9------10~|
|-8--------7-------3-------4--------1-------6-------7------8~-|

(Electric Guitar 2)
|(16x)----(8x)----(8x)----(16x)----(8x)----(4x)----(4x)-|
|-8--------8-------8-------9--------9-------9-------9---|
|-8--------8-------8-------8--------8-------8-------8---|
|-10-------9---------------6----------------8-------9---|
|------------------10---------------8-------------------|
|-------------------------------------------------------|

|(16x)----(8x)----(8x)----(16x)----(8x)----(4x)----(4x)----8~-|
|-8--------8-------8-------9--------9-------9-------9------8~-|
|-8--------8-------8-------8--------8-------8-------8------10~|
|-10-------9---------------6----------------8-------9---------|
|------------------10---------------8-------------------------|
|-------------------------------------------------------------|

This is quite an awesome South-African band that I like a lot.
Felt really good to finally finish working this out.
Enjoy.
Добавлено: 13.09.2013
Другие материалы по этой песне:
  • Аккорды и текст

Страница создана 13.09.2013
http://primanota.ru/misc-unsigned-bands/new-holland-inside-out-chords.htm
Привет, Гость.
Предлагаем пройти революционный курс по гитаре.
Подарок от PrimaNota.Ru, забирай!