PrimaNota.ru - самый крупный в мире бесплатный архив песенных текстов, аккордов, табулатур и нот


Misc Unsigned Bands - Neon Gunpowder - Wheres My Beer Gone - бас-таба

Регистрация Запомнить меня
Войти через:  Facebook Google Twitter Vk Yandex Mail.ru

Misc Unsigned Bands - Neon Gunpowder - Wheres My Beer Gone - бас-таба

Печатать
Просмотров: 62
Уроки эстрадного вокала в Санкт-Петербурге
Intro/ Bridge:
G|-------------------------------------------------|
D|-----------------------------7-----7-----9-----9-|
A|-----7-----7-----7-----7-5-5---5-5---7-7---7-7---|
E|-5-5---5-5---5-5---5-5---------------------------|


Verse:
G|---------------------------------|
D|---------------------------------|
A|-----------------5-5-5-5-7-7-7-7-|
E|-5-5-5-5-5-5-5-5-----------------|


Pre-Chorus:
G|---------------------------------------------------------|
D|---------------------7-7-7-7---------------------7-7-7-7-|
A|-------5-5-5-7-7-7-7---------------5-5-5-7-7-7-7---------|
E|-5-5-5-----------------------5-5-5-----------------------|


Chorus:
G|-----------------------------------|
D|-----------------------------------|
A|-----------7---7---5---5---4---4---|
E|---5---5---------------------------|


SONG FORM:
Intro (x2)
Verse (x2)
Pre-Chorus (x1)
Chorus (x4)
Intro (x2)
Verse (x2)
Pre-Chorus (x1)
Chorus (x4)
Bridge (x2)
Chorus (x2)
Intro (x2)
Добавлено: 19.07.2013
Другие материалы по этой песне:
  • Аккорды и текст

Страница создана 19.07.2013
http://primanota.ru/misc-unsigned-bands/neon-gunpowder-wheres-my-beer-gone-chords.htm
Привет, Гость.
Предлагаем пройти революционный курс по гитаре.
Подарок от PrimaNota.Ru, забирай!