PrimaNota.ru - самый крупный в мире бесплатный архив песенных текстов, аккордов, табулатур и нот


Misc Unsigned Bands - Nature Boy - Pomplamoose - бас-таба

Регистрация Запомнить меня
Войти через:  Facebook Google Twitter Vk Yandex Mail.ru

Misc Unsigned Bands - Nature Boy - Pomplamoose - бас-таба

Печатать
Просмотров: 101
Уроки эстрадного вокала в Санкт-Петербурге
Nataly plays open A on the 5th fret of the low E, but I prefer the open sound to star 
the line. However, avoiding open strings is a good habit to get into for you young bass players.

|--------|--------|
|-----2-3|-2-----.|2X
|0--23---|---3-2-.|
|--------|--------|
intro

|--------|--------|
|-----2-3|-2-----.|2X
|0--23---|---3-2-.|
|--------|--------|
There was a boy...

|--------|--------|--------|--------|--------|--------|--------|--------|
|---2----|--------|--------|--------|0-------|--------|--------|--------|
|0----0--|3--5-3--|---3----|--------|--------|0-------|--------|--------|
|--------|--------|1----1--|0-------|--------|--------|2---1---|0-------|
very far, very far...       A little shy, and sad of eye...

|--------|--------|
|-----2-3|-2-----.|2X
|0--23---|---3-2-.|
|--------|--------|
then one day...

|--------|--------|--------|--------|
|---2----|--------|--------|--------|
|0----0--|3--5-3--|---3----|--------|
|--------|--------|1----1--|0-------|
many things, fools and kings...

|-----97-|-----75-|-----5--|-----24-|--------|--------|
|---97--8|---76---|------76|---32---|3-------|2-------|
|8-------|--------|5--78---|--------|--------|--------|
|--------|--------|--------|--------|--------|--------|
greatest thing youll every learn...

|--------|--------|
|-----2-3|-2-----.|4X
|0--23---|---3-2-.|
|--------|--------|
Interlude

|--------|--------|--------|--------|
|---2----|--------|--------|--------|
|0----0--|3--5-3--|---3----|--------|
|--------|--------|1----1--|0-------|
Interlude

|-----97-|-----75-|-----5--|-----24-|--------|--------|--------|
|---97--8|---76---|------76|---32---|3-------|2-------|--------|
|8-------|--------|5--78---|--------|--------|--------|0-------|
|--------|--------|--------|--------|--------|--------|--------|
greatest thing youll every learn...
Добавлено: 02.09.2013
Другие материалы по этой песне:
  • Аккорды и текст

Страница создана 02.09.2013
http://primanota.ru/misc-unsigned-bands/nature-boy-pomplamoose-chords.htm
Привет, Гость.
Предлагаем пройти революционный курс по гитаре.
Подарок от PrimaNota.Ru, забирай!