PrimaNota.ru - самый крупный в мире бесплатный архив песенных текстов, аккордов, табулатур и нот


Misc Unsigned Bands - Naiad - Dahlia - таба

Регистрация Запомнить меня
Войти через:  Facebook Google Twitter Vk Yandex Mail.ru

Misc Unsigned Bands - Naiad - Dahlia - таба

Печатать
Просмотров: 40

intro:
|--------------------------------------------------|
|--------------------------------------------------|
|-9--4--5----5--2--4----9--4--5----5--2--4---------|
|-9--4--5----5--2--4----9--4--5----5--2--4---------|
|-7--2--3----3--0--2----7--2--3----3--0--2--0------|
|---------------------------------------------3-1~-|

|--------------------------------------------------|
|--------------------------------------------------|
|-9--4--5----5--2--4----9--4--5----5--2--4---------|
|-9--4--5----5--2--4----9--4--5----5--2--4---------|
|-7--2--3----3--0--2----7--2--3----3--0--2--0------|
|---------------------------------------------3-1~-|

then:
|--------------------------------------------------------------------|
|--------------------------------------------------------------------|
|-13---13-----13---15---15-----15---9---9-----9---9---9-----9--------|
|--------------------------------------------------------------------|
|-11---11-----11---13---13-----13---7---7-----7---7---7-----7--------|
|---000---0-0----0---000---0-0----0--000--0-0---0--000--0-0---0------|

|--------------------------------------------------------------------|
|--------------------------------------------------------------------|
|--------------------------------------------------------------------|
|--------------------------------------------------------------------|
|-11---11-----11---13---13-----13---7---7-----7---7---7-----7--------|
|---000---0-0----0---000---0-0----0--000--0-0---0--000--0-0---0------|


verse:
|-----------------------------------------------------------------|
|-----------------------------------------------------------------|
|-----------------------------------------------------------------|
|-4-4-4-3-4-3-----------------------------------------------------|
|-2-2-2-1-2-1-4-4-----------------5-5-5-4-5-4-2-2-----------------|
|-------------2-2-2-2-2-2-2-2-2-2-3-3-3-2-3-2-0-0-0-0-0-0-0-0-0-0-|

|-----------------------------------------------------------------|
|-----------------------------------------------------------------|
|-----------------------------------------------------------------|
|-4-4-4-3-4-3-----------------------------------------------------|
|-2-2-2-1-2-1-4-4-----------------5-5-5-4-5-4-2-2-----------------|
|-------------2-2-2-2-2-2-2-2-2-2-3-3-3-2-3-2-0-0-0-0-0-0-0-0-0-0-|

chorus:
|---------------------------|---------------|-------------------------|
|---------------------------|---------------|-------------------------|
|---------------------------|---------------|-------------------------|
|----10-9-------------------|----10-9-------|----10-------------------|
|-12-8--7-------------------|-12-8--7-------|-12-8--8-----------------|
|-10------0-0-0-0-0-0-0-0-0-|-10------0-0-0-|-10----6-6-6-6-6-6-6-6-6-|x2

verse ...

chorus again...
Добавлено: 04.10.2013
Другие материалы по этой песне:
  • Аккорды и текст

Страница создана 04.10.2013
http://primanota.ru/misc-unsigned-bands/naiad-dahlia-chords.htm
Привет, Гость.
Предлагаем пройти революционный курс по гитаре.
Подарок от PrimaNota.Ru, забирай!