PrimaNota.ru - самый крупный в мире бесплатный архив песенных текстов, аккордов, табулатур и нот


Misc Unsigned Bands - My Inner Wealth - Pokerface - таба

Регистрация Запомнить меня
Войти через:  Facebook Google Twitter Vk Yandex Mail.ru

Misc Unsigned Bands - My Inner Wealth - Pokerface - таба

Печатать
Просмотров: 62
Уроки эстрадного вокала в Санкт-Петербурге
Standard tuning
. = Palm mute
x = mute

Intro
Guitar 1
e |----------------------------------|
b |--7-7-------------7-7-------------|
g |----------6-6---------7---9-9-----|
d |------4-4-----4-4-------7---------| x4
a |------------------------------7-7-|
e |----------------------------------|

e |-----------------------------------|
b |-----------------------------------|
g |--------------999------------------|
d |-444444444444-xxx-444444444444-222-|
a |-444444444444-777-444444444444-222-|
e |-222222222222-----222222222222-000-|

Guitar 2, Starts after guitar 1 plays 2 times
e|---------------------------------------------------------------------------------|
b|---------------------------------------------------------------------------------|
g|---------------------------------------------------------------------------------|
d|-7-7-7-7-7-7-7-7-7-7-7-7-9-7-9-7-11-11-11-11-11-11-11-11-11-11-11-11-12-11-12-11-| 
a|---------------------------------------------------------------------------------|
e|---------------------------------------------------------------------------------|
   . . . . . . . . . . . . . . . . . . . . . . . . . . . . . . . . . . 

e|---------------------------------------------------------------------------------|
b|---------------------------------------------------------------------------------|
g|---------------------------------------------------------------------------------|
d|-7-7-7-7-7-7-7-7-7-7-7-7-9-7-9-7-11-11-11-11-11-11-11-11-11-11-11-11-12-11-12-11-| 
a|---------------------------------------------------------------------------------|
e|---------------------------------------------------------------------------------|

Verse / Pre-chorus
Guitar 1
e |-----------------|
b |---7-------------|
g |------6------9---|
d |----4---4--------| x8
a |---------------7-|
e |-----------------|

Guitar 2
e |-----------------|
b |-----------------|
g |-----------------|
d |-4~--------------|
a |-4~--------------|
e |-2~--------------|

Play after guitar 1 plays 2 times.
e|---------------------------------------------------------------------------------|
b|---------------------------------------------------------------------------------|
g|---------------------------------------------------------------------------------|
d|-7-7-7-7-7-7-7-7-7-7-7-7-9-7-9-7-11-11-11-11-11-11-11-11-11-11-11-11-12-11-12-11-|x5 
a|---------------------------------------------------------------------------------|
e|---------------------------------------------------------------------------------|
   . . . . . . . . . . . . . . . . . . . . . . . . . . . . . . . . . . . . . 

Last time
e|----------------------------------------------------------------------x-x-x-|
b|----------------------------------------------------------------------x-x-x-|
g|----------------------------------------------------------------------x-x-x-|
d|-7-7-7-7-7-7-7-7-7-7-7-7-9-7-9-7-11-11-11-11-11-11-11-11-11-11-11-11--x-x-x-|  
a|----------------------------------------------------------------------x-x-x-|
e|----------------------------------------------------------------------x-x-x-|
   . . . . . . . . . . . . . . . . . . . . . . . . . . . . . . . . . .
Chorus
Both guitars
Riff 1
e |-------------------------------------|
b |-------------------------------------|
g |----------77777777-------------------|
d |-44444444-77777777-77777777-22222222-| x2
a |-44444444-55555555-77777777-22222222-|
e |-22222222----------55555555-00000000-|

Riff 2
e |------------------------------------|
b |------------------------------------|
g |-------------9999-------------------|
d |-4-4-4-4-4-4-7777--4-4-4-4-4-4-2222-|
a |-4-4-4-4-4-4-7777--4-4-4-4-4-4-2222-|
e |-2-2-2-2-2-2-------2-2-2-2-2-2-0000-|

Verse/Pre-chorus
Chorus

Bridge/Solo
Guitar 1
e |--------------------------|
b |--------------------------|
g |--------------------------|
d |---11-9-7-----11-9-11-9-7-|
a |-9----------9-------------|
e |--------------------------|

Guitar 2
Same as Chorus Riff 2 only different strumming pattern, figure it out yourself.

Chorus
Riff 1 x2
Riff2

End
Добавлено: 22.10.2013
Другие материалы по этой песне:
  • Аккорды и текст

Страница создана 22.10.2013
http://primanota.ru/misc-unsigned-bands/my-inner-wealth-pokerface-chords.htm
Привет, Гость.
Предлагаем пройти революционный курс по гитаре.
Подарок от PrimaNota.Ru, забирай!