PrimaNota.ru - самый крупный в мире бесплатный архив песенных текстов, аккордов, табулатур и нот


Misc Unsigned Bands - Mumford And Sons - The Cave And The Open Sea - таба

Регистрация Запомнить меня
Войти через:  Facebook Google Twitter Vk Yandex Mail.ru

Misc Unsigned Bands - Mumford And Sons - The Cave And The Open Sea - таба

Печатать
Просмотров: 43
right this is an amazing song and its taken me ages to figure out, the chords arent 
but i couldnt figure out at all what they were, also cause its in DADFAD theres probably an 
way to play it but i figured it out this way just messing about with folk riffs 
and different tunings.

i say its worth the retune like

Pre-notes: *DADFAd
           *verse two sounds nicer with the riff if playing solo but can
            easily be played as it is on the record with the chords that the
            riff is based around
           *The chords are wrong i think because i made them up, but they
            fit just about under the vocal melody so dont be too harsh.

*****CAPO 2*****

Tuning: lo.to.hi D A D F A d

Intro/Verse1
d|-------------------------|
A|-------------------------|
F|------------1----1----1--|
D|-2/4-2-0---0-0--0-0--0-0-|  X2
A|--------0-2----2----0----|
D|-------------------------|

d|-----------------------------------------|
A|-----------------------------------------|
F|------------1----1----1----1----1----2-1-|
D|-2/4-2-0---0-0--0-0--0-0--0-0--0-0---2-0-|
A|--------0-2----2----0----------------3-2-|
D|-------------------------4----0----------|X1

It's empty in the valley of your heart,
The sun it rises slowly as you walk,
Away from all the fears and all the faults you've left behind.

The harvest left no food for you to eat,
You cannibal you meat eater you see,
But I have seen the same I know the shame in your defeat.

 Chord1  Chord2  Chord3
d|--0------0-------0--|
A|--0------0-------0--|
F|--4------2-------1--|
D|--0------2-------0--|
A|--5------3-------3--|
D|--0------0-------0--|

    1      2       3
But I will hold on hope,
    1       2       3
And I won't let you choke,
 2            3           1
On the noose around your neck,
    1          2          3
And I'll find strength in pain,
    1       2        3
And I will change my ways,
     2       3             1
I'll know my name as it's called again.

Verse2
d|-------------------------|
A|-------------------------|
F|------------1----1----1--|
D|-2/4-2-0---0-0--0-0--0-0-|  X2
A|--------0-2----2----0----|
D|-------------------------|

d|-----------------------------------------|
A|-----------------------------------------|
F|------------1----1----1----1----1----2-1-|
D|-2/4-2-0---0-0--0-0--0-0--0-0--0-0---2-0-|
A|--------0-2----2----0----------------3-2-|
D|-------------------------4----0----------|X1

'Cause I have other things to fill my time,
You take what is your's and I'll take mine,
Now let me at the truth which will refresh my broken mind.

So tie me to a post and block my ears,
I can see widows and orphans through my tears,
I know my call despite my faults and despite my growing fears.


    1      2       3
But I will hold on hope,
    1       2       3
And I won't let you choke,
 2            3           1
On the noose around your neck,
    1          2          3
And I'll find strength in pain,
    1       2        3
And I will change my ways,
     2       3             1
I'll know my name as it's called again.

verse3:
So come out of your cave walking on your hands,
And see the world hanging upside down,
you can understand dependence when you know the maker
Добавлено: 06.02.2014
Другие материалы по этой песне:
  • Аккорды и текст

Страница создана 06.02.2014
http://primanota.ru/misc-unsigned-bands/mumford-and-sons-the-cave-and-the-open-sea-chords.htm
Привет, Гость.
Предлагаем пройти революционный курс по гитаре.
Подарок от PrimaNota.Ru, забирай!