PrimaNota.ru - самый крупный в мире бесплатный архив песенных текстов, аккордов, табулатур и нот


Misc Unsigned Bands - Mucca Pazza - Peace Meal - таба

Регистрация Запомнить меня
Войти через:  Facebook Google Twitter Vk Yandex Mail.ru

Misc Unsigned Bands - Mucca Pazza - Peace Meal - таба

Печатать
Просмотров: 38
-------------------------------------------------------------------------------
                             PEACE MEAL - MUCCA PAZZA
-------------------------------------------------------------------------------
Tabbed by:  g
Email: IPSOFACTOCONCUBINE@HOTMAIL.CO.UK

Tuning:STANDARD





FIRST BIT.....INTRO



e|----------------|-------------------|
B|----------------|-------------------|
G|---3-3----------|----3-3------3---3-|
D|-5-----5---3/5--|-5-------5-5--5-5--|
A|---------5------|-------------------|
E|----------------|-------------------|

e|----------------|-------------------|
B|----------------|-------------------|     works up an octave too.....
G|---3-3-------5b-|----3-3------3---3-|
D|-5-----5---3----|-5-------5-5--5-5--|
A|---------5------|-------------------|
E|----------------|-------------------|

REPEAT 4 TIMES




3rd + 4th time bass notes play....

 
     1  2  3  4
   | G     Bb    |




NEXT BIT....'CHORUS'


e|-3-1-0----------------------------|
B|-------2h3-2h3-0--2h3-2h3-5p3p2-3-|
G|----------------------------------|
D|----------------------------------|
A|----------------------------------|
E|----------------------------------|

e|-3-1-0----------------------------|
B|-------2h3-2h3-0--2h3-2h3-0-------|
G|----------------------------------|  ....whammy on the last notes of each bar   
D|----------------------------------|  if you have one.    
A|----------------------------------|
E|----------------------------------|


REPEAT TWICE




NEXT BIT....


e|----------------------|
B|----------------------|
G|-12-13-13-12-------12-|
D|-------------12-13----|
A|----------------------|
E|----------------------|


e|----------------------------|
B|----------------15-----15---|
G|-12-13-13-12-12---12-12-----|
D|----------------------------|
A|----------------------------|
E|----------------------------|


e|----------------------|
B|----------------------|
G|-12-13-13-12-------12-|
D|-------------12-13----|
A|----------------------|
E|----------------------|


e|----------------------|
B|----------------------|
G|-12-13-13----------12-|
D|----------12-13-16----|
A|----------------------|
E|----------------------|


REPEAT TWICE 


THEN 'CHORUS' AGAIN


THEN...


      1  2   3   4
    | A  Bb  Cm  Bb |
    
    | Dm     Cm     |

    | A  Dm  Cm  Bb |
    
    | Gm     Gm     |   REPEAT 4 TIMES



XYLPHONE BUILD UP...

e|------------------|
B|------------------|
G|--7-7-7-7-6-6-6-6-|
D|--5-5-5-5-7-7-7-7-|   REPEAT TWICE
A|------------------|
E|------------------|





e|--3---3-------13--------13---5---5-------13--------13--|
B|--3---3----------------------5---5---------------------|
G|--3---3---/12----12--12------6---6---/12----12--12-----|
D|--5---5----------------------7---7---------------------|
A|--5---5----------------------7---7---------------------|
E|--3---3----------------------5---5---------------------|  REPEAT 4 TIMES



e|--3---3-------13--------13---5----------13--------13---3--|
B|--3---3----------------------5-------------------------3--|
G|--3---3---/12----12--12------6------/12----12--12------3--|
D|--5---5----------------------7-------------------------5--|
A|--5---5----------------------7-------------------------5--|
E|--3---3----------------------5-------------------------3--|


FIN.



************************************

| /   slide up
| \   slide down
| h   hammer-on
| p   pull-off
| ~   vibrato
| +   harmonic
| x   Mute note
| b   Bend
| pb  Pre-bend
| br  Bend release
| pbr Pre-bend release
| brb Bend release bend

************************************
Добавлено: 24.11.2013
Другие материалы по этой песне:
  • Аккорды и текст

Страница создана 24.11.2013
http://primanota.ru/misc-unsigned-bands/mucca-pazza-peace-meal-chords.htm
Привет, Гость.
Предлагаем пройти революционный курс по гитаре.
Подарок от PrimaNota.Ru, забирай!