PrimaNota.ru - самый крупный в мире бесплатный архив песенных текстов, аккордов, табулатур и нот


Misc Unsigned Bands - Mozes And The Firstborn - Peter Jr - таба

Регистрация Запомнить меня
Войти через:  Facebook Google Twitter Vk Yandex Mail.ru

Misc Unsigned Bands - Mozes And The Firstborn - Peter Jr - таба

Печатать
Просмотров: 79
Уроки эстрадного вокала в Санкт-Петербурге
-------------------------------------------------------------------------------
                             Peter Jr. - Mozes and The Firstborn
-------------------------------------------------------------------------------
Tabbed by: Gijs Swennen
E-mail: gijs200@gmail.com

Band website: www.mozesandthefirstborn.com
Facebook Page: https://www.facebook.com/mozesandthefirstborn  

Tuning: EADGBE

Chords for rhythm guitar:

Capo 2nd fret!

Verse + intro: 
A C D

Pre-Chorus: (Because it feels like I'm the only one...)
A C D

Chorus: (Nobody cares at all...)

All chords in barre (not related to capo)

B (799877)
A (577655)
E (x79997)
D (x57775)

B A E D
B A E D E

Tab for intro: (Capo 2nd fret!)

   D D D U D   U U D U U D
e|-0-0-0-0-0-|-0-0-0-3-3-0-|-------------------------------------------------|
B|-2-2-2-2-0-|-1-1-0-2-2-0-|-------------------------------------------------|
G|-2-2-0-2-0-|-0-0-0-3-3-0-|-------------------------------------------------|
D|-2-2-2-2-0-|-2-2-0-0-0-0-|-------------------------------------------------|
A|-0-0-0-0-0-|-3-3-0-----0-|-------------------------------------------------|
E|-----------|-------------|-------------------------------------------------|

D=down stroke
U=up stroke

Lead guitar: 

Without capo!

Main riff:
e|---------------------|-----------------------|-----------------------------|
B|---------------------|-----------------------|-----------------------------|
G|---------------------|-----------------------|-----------------------------|
D|---------------------|-----------------------|-----------------------------|
A|---------5-5-7-5-----|----------5-5-7-5------|-----------------------------|
E|-7-7-5-7---------7-5-|-7-7-5-7-----------7-5-|-----------------------------|

Pre-Chorus riff
e|-------|---------------------|---------------------------------------------|
B|-------|---------------------|---------------------------------------------|
G|-------|---------------------|---------------------------------------------|
D|-------|---------------------|---------------------------------------------|
A|-------|---------5-5-7-5-----|---------------------------------------------|
E|-7-5-4-|-7-7-5-7---------7-5-|---------------------------------------------|

At Chorus the lead guitar plays the same chords as the rhythym guitar:
B A E D
B A E D E

Solo: w/ reverb
e|-------------------------------------|-------------------------------------|
B|-------------------------------------|-------------------------------------|
G|-------------------------------------|-------------------------------------|
D|-------------------------------------|-------------------------------------|
A|-9-7-5---5--------------------/6-5-2-|-------------------------------------|
E|-------7---7-7-2-5-4--2-2-5-4--------|-------------------------------------|



************************************

| /   slide up
| \   slide down
| h   hammer-on
| p   pull-off
| ~   vibrato
| +   harmonic
| x   Mute note
| b   Bend
| pb  Pre-bend
| br  Bend release
| pbr Pre-bend release
| brb Bend release bend

************************************
Добавлено: 13.11.2013
Другие материалы по этой песне:
  • Аккорды и текст

Страница создана 13.11.2013
http://primanota.ru/misc-unsigned-bands/mozes-and-the-firstborn-peter-jr-chords.htm
Привет, Гость.
Предлагаем пройти революционный курс по гитаре.
Подарок от PrimaNota.Ru, забирай!