PrimaNota.ru - самый крупный в мире бесплатный архив песенных текстов, аккордов, табулатур и нот


Misc Unsigned Bands - Mozes And The Firstborn - I Got Skills - таба

Регистрация Запомнить меня
Войти через:  Facebook Google Twitter Vk Yandex Mail.ru

Misc Unsigned Bands - Mozes And The Firstborn - I Got Skills - таба

Печатать
Просмотров: 239
-------------------------------------------------------------------------------
                        I Got Skills - Mozes and the Firstborn
-------------------------------------------------------------------------------
Tabbed by: Gijs Swennen
E-mail: gijs200@gmail.com

Band website: www.mozesandthefirstborn.com
Facebook Page: https://www.facebook.com/mozesandthefirstborn    

Tuning: Standard (EADGBE)

Intro
   A                    A                D                     E            
e|--------------------|----------------|---------0-----------|-------0-0-0-0-0-0---|
B|----2--2-3-5-2h3p2--|----2--2-3-2----|----3--3---3-2h3p2-3-|----0--2-0-2-0-2-0---|
G|----2--------------2|----2--------2--|----2--------------2-|----0--1-1-1-1-1-1---|
D|----2---------------|----2-----------|-0--0--------------0-|----1--2-2-2-2-2-2---|
A|-0------------------|-0--------------|---------------------|-2-----2-2-2-2-2-2---|
E|--------------------|----------------|---------------------|-0-----0-0-0-0-0-0---|

Chorus and verse:

A  D  E

2nd guitar starting at 0:50
e|-------------|-------------------------|------------10-------|-------------------|
B|-----8-10-10-|-10--13--10-13-10-13--10-|-10--13--10----13-10-|-------------------|
G|-7h9---------|-------------------------|---------------------|-12h14-12----------|
D|-------------|-------------------------|---------------------|----------12h14-12-|
A|-------------|-------------------------|---------------------|-------------------|
E|-------------|-------------------------|---------------------|-------------------|

e|----------|-------------------------|------------10-------|----------------------|
B|----------|-10--13--10-13-10-13--10-|-10--13--10----13-10-|-14-12----------------|
G|------12--|-------------------------|---------------------|--------14-12--14-----|
D|--14------|-------------------------|---------------------|----------------------|
A|----------|-------------------------|---------------------|----------------------|
E|----------|-------------------------|---------------------|----------------------|

e|-------------------|-------------------------------------------------------------|
B|---------12-14-14b-|-------------------------------------------------------------|
G|---12p14-----------|-------------------------------------------------------------|
D|-------------------|-------------------------------------------------------------|
A|-------------------|-------------------------------------------------------------|
E|-------------------|-------------------------------------------------------------|

2nd guitar at chorus
e|-----------------|-----------------|---------------------|-----------------------|
B|-----------------|-----------------|---------------------|-----------------------|
G|----------9------|----------9------|-7-7--7-9-7----------|--------9--------------|
D|-7-7-9h11---11-9-|-7-7-9h11---11-9-|------------11-7-9-9-|-9-9h11---11-9-7-------|
A|-----------------|-----------------|---------------------|-----------------------|
E|-----------------|-----------------|---------------------|-----------------------|


Bridge
e|-3--3----4--4-----|-----|-0-0--0-0-------------|---------------------------------|
B|-2----2--5----5---|-----|-2-2--0-0--2-2-2-2-2--|---------------------------------|
G|-3-------4--------|-3x--|-2-2--1-1--3-3-3-3-3--|---------------------------------|
D|------------------|-----|-2-2--2-2--0-0-0-0-0--|---------------------------------|
A|------------------|-----|-0-0--2-2-------------|---------------------------------|
E|------------------|-----|------0-0-------------|---------------------------------|

Solo
e|-------------------------|-------------------------|-8-10-10b11b10-8-------------|
B|-10--13--10-13-10-13--10-|-10--13--10-13-10-13--10-|-----------------10----------|
G|-------------------------|-------------------------|-----------------------------|
D|-------------------------|-------------------------|-----------------------------|
A|-------------------------|-------------------------|-----------------------------|
E|-------------------------|-------------------------|-----------------------------|

e|-------------------------|-------------------------|-----------------------------|
B|-----8-----8-----8-----8-|-10--13--10-13-10-13--10-|-10--13--10-13-10-13--10-----|
G|-7h9---7h9---7h9---7h9---|-------------------------|-----------------------------|
D|-------------------------|-------------------------|-----------------------------|
A|-------------------------|-------------------------|-----------------------------|
E|-------------------------|-------------------------|-----------------------------|

e|-------------|--------------|----------------------------------------------------|
B|-------------|--------------|----------------------------------------------------|
G|-14-12-------|--------------|----------------------------------------------------|
D|-------14-12-|--------------|----------------------------------------------------|
A|-------------|-12-15-12-12--|----------------------------------------------------|
E|-------------|--------------|----------------------------------------------------|

Order:
Intro
Chorus (without 2nd guitar)
Verse
Chorus
Verse
Bridge
Chorus
Solo
Verse
Chorus

|
|
|
|
|
|
************************************

| /   slide up
| \   slide down
| h   hammer-on
| p   pull-off
| ~   vibrato
| +   harmonic
| x   Mute note
| b   Bend
| pb  Pre-bend
| br  Bend release
| pbr Pre-bend release
| brb Bend release bend

************************************
Добавлено: 11.06.2013
Другие материалы по этой песне:
  • Аккорды и текст

Страница создана 11.06.2013
http://primanota.ru/misc-unsigned-bands/mozes-and-the-firstborn-i-got-skills-chords.htm
Привет, Гость.
Предлагаем пройти революционный курс по гитаре.
Подарок от PrimaNota.Ru, забирай!