PrimaNota.ru - самый крупный в мире бесплатный архив песенных текстов, аккордов, табулатур и нот


Misc Unsigned Bands - Motherjane - Mindstreet - таба

Регистрация Запомнить меня
Войти через:  Facebook Google Twitter Vk Yandex Mail.ru

Misc Unsigned Bands - Motherjane - Mindstreet - таба

Печатать
Просмотров: 40
Motherjane-Mindstreet

Its tabbed by motherjane guitarist Baiju himself...

The tuning is a D# G# C# F# A# D#

The acoustic chords played in the beginning are Em7 \ Bm7 \ Am7 \ C9 \ D9 . listen to the

song for the improvisation.

While these chords backing, this intro riff is played.

|-----------------------------------|
|----------8-----7------------------|
|-------------9-----7---------------|
|----7--9--------------9------------|
|-----------------------------------|
|-----------------------------------|

This is the second riff comes after that

|-----------------------------------|
|-----------------------------------|
|-----------------------------------|
|--------5--2--4--------------------|
|--0--2-----------5--2--------------|
|-----------------------------------|

The acoustic backings played on while adding up some harmonics by the lead guitars. And the

vocals goes.

This is the riff with distortion played in the chorus part.

|---------------------------------------------------------------------------|
|---------------------------------------------------------------------------|
|------------7/9-----------5/7-------------4\5------------------------------|
|------------7/9-----------5/7-------------4\5------------5\ slide ---------|
|------------5/7-----------3/5-------------2\3------------5\ slide ---------|
|--0-0-0-0-------0-0-0-0------0-0-0-0-------0-0-0-0-3\ slide ---------------|

This riff comes just before lead

|-------------------|-----------------|------------------|-------------------|
|-------------------|-----------------|------------------|-------------------|
|------------------o|----------------o|-----7---4-------o|------9-4---------o|
|------5----4------o|-----7---4------o|---4---4---7-4---o|----5-----7-------o|
|--0-2---4----5-2---|-0-3---4---5-3---|-5----------------|--7---------9-5----|
|-------------------|-----------------|------------------|-------------------|

Then comes the lead portion. I
Добавлено: 20.12.2013
Другие материалы по этой песне:
  • Аккорды и текст

Страница создана 20.12.2013
http://primanota.ru/misc-unsigned-bands/motherjane-mindstreet-chords.htm
Привет, Гость.
Предлагаем пройти революционный курс по гитаре.
Подарок от PrimaNota.Ru, забирай!