PrimaNota.ru - самый крупный в мире бесплатный архив песенных текстов, аккордов, табулатур и нот


Misc Unsigned Bands - Mojacko - If My Lover Was An Alien - аккорды и текст

Регистрация Запомнить меня
Войти через:  Facebook Google Twitter Vk Yandex Mail.ru

Misc Unsigned Bands - Mojacko - If My Lover Was An Alien - аккорды и текст

Печатать
Просмотров: 62
Mojacko - If My Lover Was An Alien
Misc Unsigned Bands
IF MY LOVER WAS AN ALIEN

Mojacko 1st ending song guitar chord
type: Harmonic jazz
Chord Difficulties: medium

Attention! Please refer the chord legend as I provided below, Otherwise you will be 
problems while playing.


Standard guitar tune.
e---------|
B---------|
G---------|
D---------|
A---------|
E---------|


Intro
--------

B  F# E  A}
M  O  J  A} One string chord only

     B
Moja! Moja! Moja!


         F#   A6     B     B7    E   Ebm/5-   C#m7
moshimo   koibito    ga   uchi   uji in nara

  C#m7/6-      F#  A6    B   B7     E   D7  E
donanna    DE-TO nine,       naruno kana

              F#  A6   B      B7   E   Ebm/5-   C#m7
suiseide     cho-ot to       mizua zabi shite

 C#m7/6-    F#   A6     B      B7     E    D7  E
dosei      no wakkade          hito  suberie

CHORUS
--------

  E7     A       Am
kotoba nante iranaine

 Abm      C#m  C#m7
kitto  tanoshi kute

 F#m         F#7        B
toki wo  wasurerude  showo


         F#   A6      B    B7   E   Ebm/5-   C#m7
kiinsei   de aeru        kirei na V ni-NAS

C#m7/6-     F#    A6     B     B7     E   D7  E
suteki      na tokoroe         tsuretette


Ver Remix:  F#   A6   B   B7  E  Em7  C#m7

            C#m7/6-   F#   A6  B   B7  E  Ebm/5-


         F#   A6      B     B7    E   Ebm/5-   C#m7
moshimo koibito ga        uchujin nara

 C#m7/6-   F#    A6     B     B7     E   D7  E
PAPA mo   MAMA mo ne        odorokuwa

         F#   A6    B      B7        E   Ebm/5-   C#m7
mokusei de BOIJA-          machibuse shitara

 C#m7/6-      F#   A6     B     B7     E   D7  E
kasei de      tomodachi        mitsukeruno


CHORUS
------

   E7     A      Am
yumewa itsuka kanaumono

  Abm      C#m C#m7
kokoro  awasete

  F#m    F#7      B
kitto WA-PU dek irune

        F#   A6    B     B7    E   Ebm/5-   C#m7
chikyu   wa aokute        kirei datta to

 C#m7/6-      F#   A6   B   B7     E   D7  E
minna      ni hanashite     agetaina

verse: Harmonic

E E7

A Am C6 Am Abm B6 C#m C#m7  F#  C  C7

E Em7 D C#

A Am C6 Am Abm B6 C#m C#m7  F#  C  C7

E D7 E


          F#   A6  B        B7     E   Ebm/5-   C#m7
moshimo   koibito  ga      uchu uju in nara

C#m7/6-  F#   A6   B   B7     E   D7  E
hiroi     uchuwa       yuenchi

           F#  A6    B     B7     E   Ebm/5-   C#m7
suikiinchi ka  moku       tenkai meiou

          F#  A6  B    B7     E   Ebm/5-   C#m7
sa- uchu  sende        tobitatou

         F#   A6     B       E   D7  E
sutekina hoshieta tsuretette

Ending verse:

F#   A6   B   B7  E  Em7  C#m7

C#m7/6-   F#   A6  B   B7  E  Ebm/5-


Done!



======================
COMPLEX CHORD LEGEND:
======================

A6     (4222):  e-------|--2--|-----|-----|-----|
                B-------|--2--|-----|-----|-----|
                G-------|--2--|-----|-----|-----|
                D-------|--2--|-----|-----|-----|
                A-------|-----|-----|--4--|-----|
                E-------|-----|-----|-----|-----|

D#m/5-  (787):  e-------|-----|-----|-----|-----|
                B-------|--7--|-----|-----|-----|
                G-------|-----|--8--|-----|-----|
                D-------|--7--|-----|-----|-----|
                A-------|-----|-----|-----|-----|
                E-------|-----|-----|-----|-----|

C#m7  (46454):  e-------|--4--|-----|-----|-----|
                B-------|-----|--5--|-----|-----|
                G-------|--4--|-----|-----|-----|
                D-------|-----|-----|--6--|-----|
                A-------|--4--|-----|-----|-----|
                E-------|-----|-----|-----|-----|

C#m7/6-(44454): e-------|--4--|-----|-----|-----|
                B-------|-----|--5--|-----|-----|
                G-------|--4--|-----|-----|-----|
                D-------|--4--|-----|-----|-----|
                A-------|--4--|-----|-----|-----|
                E-------|-----|-----|-----|-----|

B7   (797877):  e-------|--7--|-----|-----|-----|
                B-------|--7--|-----|-----|-----|
                G-------|-----|--8--|-----|-----|
                D-------|--7--|-----|-----|-----|
                A-------|-----|-----|--9--|-----|
                E-------|--7--|-----|-----|-----|

D7   (57575):   e-------|--5--|-----|-----|-----|
                B-------|-----|-----|--7--|-----|
                G-------|--5--|-----|-----|-----|
                D-------|-----|-----|--7--|-----|
                A-------|--5--|-----|-----|-----|
                E-------|-----|-----|-----|-----|

E7M  (79897):   e-------|--7--|-----|-----|-----|
                B-------|-----|-----|--9--|-----|
                G-------|-----|--8--|-----|-----|
                D-------|-----|-----|--9--|-----|
                A-------|--7--|-----|-----|-----|
                E-------|-----|-----|-----|-----|

F#7 (242322):   e-------|--2--|-----|-----|-----|
                B-------|--2--|-----|-----|-----|
                G-------|-----|--3--|-----|-----|
                D-------|--2--|-----|-----|-----|
                A-------|-----|-----|--4--|-----|
                E-------|--2--|-----|-----|-----|

E7   (79797):   e-------|--7--|-----|-----|-----|
                B-------|-----|-----|--9--|-----|
                G-------|--7--|-----|-----|-----|
                D-------|-----|-----|--9--|-----|
                A-------|--7--|-----|-----|-----|
                E-------|-----|-----|-----|-----|

C6  (575555):   e-------|--5--|-----|-----|-----|
                B-------|--5--|-----|-----|-----|
                G-------|--5--|-----|-----|-----|
                D-------|--5--|-----|-----|-----|
                A-------|-----|-----|--7--|-----|
                E-------|--5--|-----|-----|-----|

B6              e-------|--4--|-----|-----|-----|
                B-------|--4--|-----|-----|-----|
                G-------|--4--|-----|-----|-----|
                D-------|--4--|-----|-----|-----|
                A-------|-----|-----|--6--|-----|
                E-------|--4--|-----|-----|-----|


tab by: icikiro/using alkakeru account copyright owner APRIL 2009
Добавлено: 04.10.2013
Другие материалы по этой песне:
  • Аккорды и текст

Страница создана 04.10.2013
http://primanota.ru/misc-unsigned-bands/mojacko-if-my-lover-was-an-alien-chords.htm
Привет, Гость.
Предлагаем пройти революционный курс по гитаре.
Подарок от PrimaNota.Ru, забирай!