PrimaNota.ru - самый крупный в мире бесплатный архив песенных текстов, аккордов, табулатур и нот


Misc Unsigned Bands - Me Vs Hero - Hey Elzar Take It Up Another Notch With The Spice Weasel Bam - таба

Регистрация Запомнить меня
Войти через:  Facebook Google Twitter Vk Yandex Mail.ru

Misc Unsigned Bands - Me Vs Hero - Hey Elzar Take It Up Another Notch With The Spice Weasel Bam - таба

Печатать
Просмотров: 48
Intro
e|------------------------------------------------------|
B|------------------------------------------------------|
G|---------------------------------7---/9---------------|
D|---0~-----0-0-0--------------0~-----------------------|
A|---0~-----0-0-0--------------0~--5---/7---------------|
D|---0~-----0-0-0-----000-000--0~-----------------------|
            . . .     ... ...

e|-------------------------------------------------------|
B|-------------------------------------------------------|
G|-------------------------------------------------------|
D|--0-0-0--------------------0------0------0-------------|
A|--0-0-0---9-7-5---7-9ph----0-5h7--0-7h9--0-5h7---------|
D|--0-0-0---------7----------0------0------0-------------|
    . . .

e|-----------------------------------------------------------------------|
B|-----------------------------------------------------------------------|
G|-----------------------------------------------------------------------|
D|----------------------0-------0-------0--------------------------------|
A|------9h10------5h7---0-7h9---0-9h10--0-7h9--------9h10-------5h7------|
D|--9-9--------5-5------0-------0-------0--------9-9--------5-5----------|
    . .        . .                               . .        . .

X2
e|-----------------------------------------------------------------------|
B|-----------------------------------------------------------------------|
G|-----------------------------------------------------------------------|
D|-----------------------------------------------------------------------|
A|------7-9-7-5---------9-5-7-5---------7-9-7-5--------9h10------5h7-----|
D|--0-0---------7---0-0---------5---0-0---------7--9-9-------5-5---------|
    . .             . .             . .            . .       . .

Verse X2
e|-------------------------------------------------------------|
B|-------------------------------------------------------------|
G|-------------------------------------------------------------|
D|------------------7------------------------------------------|
A|---55-5--55-5--55---55-5-4h5-------55-5--55-5--9ph-7ph~------|
D|-----------------------------7p5-----------------------------|
     .. .  .. .  ..   .. .           .. .  .. .


e|------------------------------------------------------|
B|------------------------------------------------------|
G|------------------------------------------------------|
D|------------------------------------------------------|
A|--0-5-7-0-7-9-0-9-10-9-12-9-10-9-7-9---X2-------------|
D|------------------------------------------------------|



pre-chorus
e|--------------------------------------------------------------------------|
B|--------------------------------------------------------------------------|
G|--------------------------------------------------------------------------|
D|5555555555555555-9999999999999999-55555555555555555-----------------------|
A|5555555555555555-9999999999999999-55555555555555555---------7h9--10-9-7-9-|
D|5555555555555555-9999999999999999-55555555555555555-77777777---77---------|
							 ........   ..

chorus X2
e|-----------------------------------------------------------------------|
B|-----------------------------------------------------------------------|
G|-----------------------------------------------------------------------|
D|-----------------------------------------------------------------------|
A|------7-9-7-5---------9-5-7-5---------7-9-7-5--------9h10------5h7-----|
D|--0-0---------7---0-0---------5---0-0---------7--9-9-------5-5---------|
    . .             . .             . .            . .       . .
post chorus
e|-----------------------------------------------------------------------|
B|-----------------------------------------------------------------------|
G|-----------------------------------------------------------------------|
D|-----------7-0---------------------------------------------------------|
A|--9-7-5-0------5-7--X8--------5ph~-------------------------------------|
D|-----------------------------------------------------------------------|

repeat verse

pre-chorus
e|------------------------------------------------------------------|
B|------------------------------------------------------------------|
G|------------------------------------------------------------------|
D|5555555555555555-9999999999999999-5-55-5-5-5-5-2220~-0--0-0-------|
A|5555555555555555-9999999999999999-5-55-5-5-5-5-2220~-0--0-0-------|
D|5555555555555555-9999999999999999-5-55-5-5-5-5-2220~-0--0-0-------|
							  .  . .
e|-----------------------------------------------------------------------|
B|-----------------------------------------------------------------------|
G|-----------------------------------------------------------------------|
D|-0--0-0-----0--0-0-----------0--0-0~-----------------------------------|
A|-0--0-0-----0--0-0--7ph------0--0-0~-----------------------------------|
D|-0--0-0-----0--0-0-----------0--0-0~-----------------------------------|
   .  . .     .  . .           .  . .
e|-----------------------------------------------------------------------|
B|-----------------------------------------------------------------------|
G|-----------------------------------------------------------------------|
D|-----------------------------------------------------------------------|
A|------7-9-7-5---------9-5-7-5---------7-9-7-5--------9h10------5h7-----|
D|--0-0---------7---0-0---------5---0-0---------7--9-9-------5-5---------|
    . .             . .             . .            . .       . .
repeat chorus + post chorus

e|--------------------------------------------------------------------------|
B|--------------------------------------------------------------------------|
G|--------------------------------------------------------------------------|
D|--0-----------------------------------------------------------------------|
A|--0--7h9p7p5h7p5------5-----7/9-7---7-9-10-9-7-9---------/9--7------------|
D|--0--------------7p5----7-7-----------------------7--5--------------------|


e|----------------------------------------------------------------------|
B|----------------------------------------------------------------------|
G|----------------------------------------------------------------------|
D|--0-0-0--0-0-0--0-0-0--0-0-0--0-0-0---0--0--0-------------------------|
A|--0-0-0--0-0-0--0-0-0--0-0-0--0-0-0---0--0--0-------------------------|
D|--0-0-0--0-0-0--0-0-0--0-0-0--0-0-0---0--0--0-------------------------|
    . . .  . . .  . . .  . . .  . . .   .  .  .

 BOOM!

e|---------------------------------------------------------------------|
B|---------------------------------------------------------------------|
G|---------------------------------------------------------------------|
D|--0-0-0--0-0-0-0~--0-0-0--0-0-0-0~-----------------------------------|
A|--0-0-0--0-0-0-0~--0-0-0--0-0-0-0~--9/5-7----------------------------|
D|--0-0-0--0-0-0-0~--0-0-0--0-0-0-0~-----------------------------------|
    . . .  . . . .   . . .  . . . .
e|---------------------------------------------------------------------|
B|---------------------------------------------------------------------|
G|---------------------------------------------------------------------|
D|--0-0-0--0-0-0-0~--0-0-0---------------------------------------------|
A|--0-0-0--0-0-0-0~--0-0-0--9-5-7-5-7-9-9p7-5--------------------------|
D|--0-0-0--0-0-0-0~--0-0-0---------------------------------------------|
    . . .  . . . .   . . .
repeat until end
e|---------------------------------------------------------------------|
B|---------------------------------------------------------------------|
G|---------------------------------------------------------------------|
D|--00000--0-0-0-0~--00000--0-0-0-0~-----------------------------------|
A|--00000--0-0-0-0~--00000--0-0-0-0~--9/5-7----------------------------|
D|--00000--0-0-0-0~--00000--0-0-0-0~-----------------------------------|
    .....  . . . .   .....  . . . .
e|---------------------------------------------------------------------|
B|---------------------------------------------------------------------|
G|---------------------------------------------------------------------|
D|--00000--0-0-0-0~--00000---------------------------------------------|
A|--00000--0-0-0-0~--00000--9-5-7-5-7-9-9p7-5--------------------------|
D|--00000--0-0-0-0~--00000---------------------------------------------|
    .....  . . . .   .....

end
e|------------------|
B|------------------|
G|------------------|
D|--0-0-0--0-0-0----|
A|--0-0-0--0-0-0----|
D|--0-0-0--0-0-0----|
    . . .  . . .
Добавлено: 05.11.2013
Другие материалы по этой песне:
  • Аккорды и текст

Страница создана 05.11.2013
http://primanota.ru/misc-unsigned-bands/me-vs-hero-hey-elzar-take-it-up-another-notch-with-the-spice-weasel-bam-chords.htm
Привет, Гость.
Предлагаем пройти революционный курс по гитаре.
Подарок от PrimaNota.Ru, забирай!