PrimaNota.ru - самый крупный в мире бесплатный архив песенных текстов, аккордов, табулатур и нот


Misc Unsigned Bands - Mass Hysteria - The Knight Who Survived Barrens Chat - таба

Регистрация Запомнить меня
Войти через:  Facebook Google Twitter Vk Yandex Mail.ru

Misc Unsigned Bands - Mass Hysteria - The Knight Who Survived Barrens Chat - таба

Печатать
Просмотров: 47
Уроки эстрадного вокала в Санкт-Петербурге
Questions or comments contact me at Zedbisharat@hotmail.com
  
 Standard tuning

INTRO
Play this four times
e|-----------------------------|
B|-----------------------------|
G|1~------5~-------------------|
D|2~------5~------5~------/7-7~|
A|2~------0~------5~------/7-7~|
E|--------3~------3~------/5-5~| 


Verse

e|--------------------|
B|--------------------|
G|11x11x11--55x-------|  This part is played 4 times as well
D|22x22x22--55x-55/777|
A|22x22x22--00x-55/777|
E|----------33x-33/555|

Bridge

e|---------------------|
B|---------------------|
G|---------------------|
D|x77x-5xxx-55x-3~--3-2|
A|x77x-5xxx-55x-3~-----|
E|x55x-3xxx-33x-1~-----|


Chorus

e|---------------------------------------------------------------------|
B|---------------------------------------------------------------------|
G|11xx11xx11x----------11xx11xx11x--5-555---11xx11xx11x----------------|
D|22xx22xx22x--5-555---22xx22xx22x--5-555---22xx22xx22x--5-555-54------|
A|22xx22xx22x--5-555---22xx22xx22x--0-000---22xx22xx22x--5-555---452---|
E|-------------3-333----------------3-333----------------3-333------530|

e|-------------------------------------------------------|
B|-------------------------------------------------------|
G|11xx11xx11x----------22xx22xx22x----------22xx22xx22x--|
D|22xx22xx22x--5/777---22xx22xx22x--5/777---22xx22xx22x--|
A|22xx22xx22x--5/777---22xx22xx22x--5/777---22xx22xx22x--|
E|-------------3/555----------------3/555----------------|



e|----------------------------|
B|----------------------------|
G|----------------------------|
D|5/777/9999/777/5-555/7777---|
A|5/777/9999/777/5-555/7777---|
E|3/555/7777/555/3-333/5555---|



Breakdown

e|-----------------|
B|-----------------|
G|---------1-1-----|
D|3-3-3-2--2-2-2-3-|
A|3-3------2-2-----|
E|1-1--------------|



Solo

e|-------------------------------------------------------|
B|-------------------------------------------------------|
G|-------------------------------------------------------|
D|-----------------------------------------------7-------|
A|------7-------------7-10-11~------7------7-9-10-9-10-9-|
E|7-9-10-9-10-9-7-9-10--------7-9-10-9-10-9--------------|

e|------------------------------------------------------|
B|------------------------------------------------------|
G|------------------------------------------------------|
D|------------------------------------------------------|
A|------7-------------7-10-11~------7------10-9-7B7-----|
E|7-9-10-9-10-9-7-9-10--------7-9-10-9-10-9--------10-9-|

e|-------------------------------------------------------|
B|-------------------------------------------------------|
G|-------------------------------------------------------|
D|-----------------------------------------------7-------|
A|------7-------------7-10-11~------7------7-9-10-9-10-9-|
E|7-9-10-9-10-9-7-9-10--------7-9-10-9-10-9--------------|

e|-------------------------------------------------------|
B|-------------------------------------------------------|
G|------7-------------7-9-10------7------10----9---7~----|
D|7-9-10-9-10-9-7-9-10------7-9-10-9-10-9--10-9-9-7------|
A|-------------------------------------------------------|
E|-------------------------------------------------------|



Outro

E|-------------------------------------------------------------|
B|-------------------------------------------------------------|
G|------------111-------------111-------------111----------1~~-|
D|555-333-333-222-555-333-333-222-555-333-333-222-5~-3~-3~-2~~-|
A|555-444-333-222-555-444-333-222-555-444-333-222-5~-4~-3~-2~~-|
E|333-444-111-----333-444-111-----333-444-111-----3~-4~-1~-----|






This is the first song ever written by Mass Hysteria
ENJOY!


Добавлено: 28.12.2013
Другие материалы по этой песне:
  • Аккорды и текст

Страница создана 28.12.2013
http://primanota.ru/misc-unsigned-bands/mass-hysteria-the-knight-who-survived-barrens-chat-chords.htm
Привет, Гость.
Предлагаем пройти революционный курс по гитаре.
Подарок от PrimaNota.Ru, забирай!