PrimaNota.ru - самый крупный в мире бесплатный архив песенных текстов, аккордов, табулатур и нот


Misc Unsigned Bands - Marty Simpson - And For What - таба, видео

Регистрация Запомнить меня
Войти через:  Facebook Google Twitter Vk Yandex Mail.ru

Misc Unsigned Bands - Marty Simpson - And For What - таба, видео

Печатать
Просмотров: 39
-------------------------------------------------------------------------------
                             AND FOR WHAT - Marty Simpson
-------------------------------------------------------------------------------
Tabbed by: Tate Baillie
Email: bailsdaman41@hotmail.com

Tuning: Standard (EADGBe)
Capo on 1

Intro
e|-----------------------------------------------------------|
B|----0---0----0----0----------------3-----------------------|
G|----0------0----------------0------------------------------|
D|--------------------0--0h4-----4-------4---4---------------|
A|----------------------3---3-----3--------3-----------------|
E|--0--------------------------------------------------------|


e|-----------------------------------------------------------|
B|----0---0----3-------------------------------3-------------|
G|----0------0-----0-0-0-2h4-2p0--------0--------------------|
D|---------------------------------0h4-----4-------4---4-----|
A|--------------------------------3---3-----3--------3-------|
E|--0--------------------------------------------------------|

e|-----------------------------------------------------------|
B|--------------------------------------3-3----3-1-0---------|
G|----4h5--0-2-----------------------------------------------|
D|----------------0-4h5-4p0----4p0---4-------4---------------|
A|---------------------------3-----3-------------------------|
E|--0----0-----x-------------------------------------0-------|

                    slowing ----------------------------------|
e|------------------------------------------------------------|
B|--3-1----------------------------------3-----3-----3--------|
G|--------0-2-------------------------------------------------|
D|------0---------0-4h5-4p0----4p0---4-4---4-4---4-4---4-4-4--|
A|---------------------------3-----3--------------------------|
E|------------x-----------------------------------------------|

Verse
e|----3-3------3-3-----3-3----3-3------3-3-----3-3-----3-3----3-3---|
B|----3-3------1-1h3---0-0----0-0------3-3-----1-1h3---0-0----0-0---|
G|-------0----------------0------0----------------------------------|
D|------------------------------------------------------------------|
A|-----------------------------------3------------------------------|
E|--0--------0-------0------0---------------------------------------|

Basically he just repeats the above line for the verse every now
and then adding connecting notes etc.


Chorus
e|----3-2-2h3----2-2-2h3----3-3-2-2---------------|
B|----3-3-3------3-3-3------3-3-3-3----3---3-3----|
G|-------------------------------------0h2-0-0h2--|
D|------------------------------------------------|
A|-------------0----------2---------3-------------|
E|--3---------------------------------------------|

As with the verse he plays it different every time so the chorus
is just a variation of this.


| /  slide up
| \  slide down
| h  hammer-on
| p  pull-off
| ~  vibrato
| +  harmonic
| x  Mute note
===============================================================================
Добавлено: 09.09.2013
Другие материалы по этой песне:
  • Аккорды и текст

Страница создана 09.09.2013
http://primanota.ru/misc-unsigned-bands/marty-simpson-and-for-what-chords.htm
Привет, Гость.
Предлагаем пройти революционный курс по гитаре.
Подарок от PrimaNota.Ru, забирай!