PrimaNota.ru - самый крупный в мире бесплатный архив песенных текстов, аккордов, табулатур и нот


Misc Unsigned Bands - Mano Chao - Mala Vida - бас-таба, видео

Регистрация Запомнить меня
Войти через:  Facebook Google Twitter Vk Yandex Mail.ru

Misc Unsigned Bands - Mano Chao - Mala Vida - бас-таба, видео

Печатать
Просмотров: 44
http://www.manuchao.net/manuchao/la-mano-negra/index.php?p=3&l=2

Title: Mala Vida
Artist: Mano Negra
Album: Patchanka
Year: 1988

I think the first part of Riff 1 is too high, he might use a 5-string bass guitar, or 
his guitar in drop D - but this sounds fun too! :-)

Just listen to the song when to use which riff - the third riff is easy to hear as the 
is the same as the guitar riff.
Have fun!

RIFF 1

G|---------|-------------|
D|---------|-------------|
A|5--3-2-0-|-----2-5-3-2-|
E|---------|-0-4---------|

RIFF 2

G|------------------------------------|
D|------1-2-3---3---------------------|
A|0---0-------3---3-4-5---5-5-6-7---7-|
E|--0-------------------5---------7---|

RIFF 3

G|------------|-------------|
D|------------|-------------|
A|------------|-----2-5-3-2-|
E|1---1-3-1-0-|-0-4---------|
Добавлено: 02.08.2013
Другие материалы по этой песне:
  • Аккорды и текст

Страница создана 02.08.2013
http://primanota.ru/misc-unsigned-bands/mano-chao-mala-vida-chords.htm
Привет, Гость.
Предлагаем пройти революционный курс по гитаре.
Подарок от PrimaNota.Ru, забирай!