PrimaNota.ru - самый крупный в мире бесплатный архив песенных текстов, аккордов, табулатур и нот


Misc Unsigned Bands - Mandopony - Loyalty - аккорды и текст

Регистрация Запомнить меня
Войти через:  Facebook Google Twitter Vk Yandex Mail.ru

Misc Unsigned Bands - Mandopony - Loyalty - аккорды и текст

Печатать
Просмотров: 80
Mandopony - Loyalty
Misc Unsigned Bands
Tabbed for all the other awesome bronies out there. Keep on rockin' Mando! *BROHOOF*

e|----------------2-3---2h3h2------------------------3--------3----------------|
B|-------0--------------------0--------------3----------3--------3-------------|
G|------------0-----------------0---------------0-----------0------------------|
D|---2-----------------------------------2-------------------------------------|
A|-2-----------------------------------3---------------------------------------|
E|-----------------------------------------------------------------------------|

e|--------------------3------------------3------------------------3---------------|
B|----------3----------------3--------------3--------------3---------3------------|
G|-------------0---------------0---------------0-------------2--------------------|
D|-------------------------------------------------------------0------------------|
A|-----2--------------------------------------------------------------------------|
E|--3------------------------------------------------2-2--------------------------|

INTRO
E C G D x2

VERSE

E                       C
You see me soaring through the sky
G                     D
I see you below as you walk on by
E                           C
I could clear the sky in 10 second flat
G                       D
How about that (How about that)

E                       C
I could be sitting here on a cloud
G                         D
Watching the sun as it starts to go down
E                            C
the only thing missing
G                       D
is you by my side

PRE-CHORUS

C                      D
give me a smidge of confidence
E                      G
give me a speck of something that makes sense
C                       D
give me an idea of dependency
E                   G       C D E G
give me a dash of loyalty (Loyalty)

E

CHORUS

E                            C
I could save my lonely soul for you
       G                              D
but the feeling in my heart can't follow through
E                                     C
you can give your broken heart to me
G
cause you know that i'll stay with you
   D                           C    E      C      
G D
That's why they call me loyalty (loyalty)

VERSE

PRE-CHORUS

CHORUS

BRIDGE

C                              E
Time stands still when you're with me
C               E
how can i make you see?
         C                  E
your crazy antics make me want to scream
C                                    D
your name so loud till my throat starts to bleed

CHORUS x2

End on Em
Добавлено: 16.10.2013
Другие материалы по этой песне:
  • Аккорды и текст

Страница создана 16.10.2013
http://primanota.ru/misc-unsigned-bands/mandopony-loyalty-chords.htm
Привет, Гость.
Предлагаем пройти революционный курс по гитаре.
Подарок от PrimaNota.Ru, забирай!