PrimaNota.ru - самый крупный в мире бесплатный архив песенных текстов, аккордов, табулатур и нот


Misc Unsigned Bands - Make Shapes - See Saw - бас-таба, видео

Регистрация Запомнить меня
Войти через:  Facebook Google Twitter Vk Yandex Mail.ru

Misc Unsigned Bands - Make Shapes - See Saw - бас-таба, видео

Печатать
Просмотров: 38
SEESAW
(verse)
G|-------------------------------------------------------------------------|
D|-------------------------------------------------------------------------|
A|-------------------------------------------------------------------------|
E|--2(x16)---0(x8)---5(x4)---7(x4)-----------------------------------------|

(bridge)

G|-------------------------------------------------------------------------|
D|-------------------------------------------------------------------------|
A|-------------------------------------------------------------------------|
E|-5(x4)---7(x4)---2(x6)---------------------------------------------------|

chorus (roughly)

G|---------------------------------------------------------------------------|
D|---------------------------------------------------------------------------|
A|-----------------5---------------------------------------------------------|
E|--0------3---------------5-------------------------------------------------|

(chorus repeats four times)

breakdown/middle eight

G|-------------------------------------------------------------------------|
D|-------------------------------------------------------------------------|
A|-------------------------------------------------------------------------|
E|--0(let ring)-------(x4)-------------------------------------------------|

last bit(rough)

G|-------------------------------------------------------------------------|
D|-------------------------------------------------------------------------|
A|----------------------55555555555----------------------------------------|
E|-00000000000--55-33-----------------33-55--------------------------------|

repeat x4 then end on the E

myspace.com/makeshapesmakeshapes
Добавлено: 05.12.2013
Другие материалы по этой песне:
  • Аккорды и текст

Страница создана 05.12.2013
http://primanota.ru/misc-unsigned-bands/make-shapes-see-saw-chords.htm
Привет, Гость.
Предлагаем пройти революционный курс по гитаре.
Подарок от PrimaNota.Ru, забирай!