PrimaNota.ru - самый крупный в мире бесплатный архив песенных текстов, аккордов, табулатур и нот


Misc Unsigned Bands - Madflow - Sarong Banggi - таба

Регистрация Запомнить меня
Войти через:  Facebook Google Twitter Vk Yandex Mail.ru

Misc Unsigned Bands - Madflow - Sarong Banggi - таба

Печатать
Просмотров: 41
chords: am, dm, e


e---0-1-0--5-7-7h8p7-5-4-7----|---8-5------8-5------8-5-4-7---------4-5-7s9-7-5-|
B--3-----------------------5--|-5----5---6-----6---5--------5---5-7-------------|
G-----------------------------|-------------------------------------------------|
D-----------------------------|-------------------------------------------------|
A-----------------------------|-------------------------------------------------|
E-----------------------------|-------------------------------------------------|


e---8-5------5-3-1------------5-7-7s8-7-----7-5---|----4-5-7s9-999999-9-7-5h7-7-----4-5-5s7-777777-7-5-4h5-5-|
B-5-----5--5---------3-5-6-5------------7-9-------|-5-7-------------------------5-7--------------------------|
G-------------------------------------------------|----------------------------------------------------------|
D-------------------------------------------------|----------------------------------------------------------|
A-------------------------------------------------|----------------------------------------------------------|
E-------------------------------------------------|----------------------------------------------------------|

e-----4-5-7s9-999999-9-14-12-10b-10---10-----------8-7-5-4----8-4-5--|
B-5-7------------------------------------13-12-10-----------5--------|
G--------------------------------------------------------------------|
D--------------------------------------------------------------------|
A--------------------------------------------------------------------|
E--------------------------------------------------------------------|


hope you like it bikolanos......
kalahi ko naman kamo...
tnx...

DAN2
Добавлено: 01.11.2013
Другие материалы по этой песне:
  • Аккорды и текст

Страница создана 01.11.2013
http://primanota.ru/misc-unsigned-bands/madflow-sarong-banggi-chords.htm
Привет, Гость.
Предлагаем пройти революционный курс по гитаре.
Подарок от PrimaNota.Ru, забирай!