PrimaNota.ru - самый крупный в мире бесплатный архив песенных текстов, аккордов, табулатур и нот


Misc Unsigned Bands - Luke Dec - Guitar - таба, видео

Регистрация Запомнить меня
Войти через:  Facebook Google Twitter Vk Yandex Mail.ru

Misc Unsigned Bands - Luke Dec - Guitar - таба, видео

Печатать
Просмотров: 69
IVE BEEN ASKED A FEW TIMES 
TO TAB THIS OUT HERE IS A LINK TO IT SO 
YOU CAN WORK OUT THE TAB (my youtube channel, i made the solo up)
http://www.youtube.com/watch?v=OOGbKbFTg3k
THE BACKING TRACK IS 'FAREWELL BALLAD BY ZAKK WYLDE'
I have no idea how to do tabs as its my first time.
but i get the idea of what to do.
(i use vibrato on nearly every note)I will probably include a close up slowed down 
version one day on my youtube channel (LukeRD95)

e|---------------------------------------------------------------|
B|---------------------------13--------------------10-13-11-10---|
G|-----------12----------12------12---------10h12----------------|
D|----10h12-------10h12--------------10h12-----------------------|
A|---------------------------------------------------------------|
E|---------------------------------------------------------------|

e|-------------------------------------13-12-10----|
B|------------------10--13--13b15v-----------------|
G|-----------10h12---------------------------------|
D|----10h12----------------------------------------|
A|-------------------------------------------------|
E|-------------------------------------------------|

e|----10-----10-10-13-12-10--10-----10-10-13-12-10----|
B|----13b15------------------13b15--------------------|
G|----------------------------------------------------|
D|----------------------------------------------------|
A|----------------------------------------------------|
E|----------------------------------------------------|

e|----10-----10-10-13-12-10--10-----10-10-13-12-10----|
B|----13b15------------------13b15--------------------|
G|----------------------------------------------------|
D|----------------------------------------------------|
A|----------------------------------------------------|
E|----------------------------------------------------|

e|----10-----10-10-13-12-10--10-----10-10-13-12-10----|
B|----13b15------------------13b15--------------------|
G|----------------------------------------------------|
D|----------------------------------------------------|
A|----------------------------------------------------|
E|----------------------------------------------------|

e|---------------------------------------|
B|----13b15--13--10----------------------|
G|------------------12b14--12--10--------|
D|---------------------------------12----|
A|---------------------------------------|
E|---------------------------------------|

e|------------------------------------------------|
B|------------------------------------------------|
G|----------10------10------10------10------10----|
D|----10h12---10h12---10h12---10h12---10h12-------|
A|------------------------------------------------|
E|------------------------------------------------|

e|------------------------------------------------|
B|------------------------------------------------|
G|----------10------10------10------10------10----|
D|----10h12---10h12---10h12---10h12---10h12-------|
A|------------------------------------------------|
E|------------------------------------------------|

e|---------------------------------------------------------------|
B|------------------10-13-11-10----------------10--13--13b15v----|
G|-----------10h12----------------------10h12--------------------|
D|----10h12----------------------10h12---------------------------|
A|---------------------------------------------------------------|
E|---------------------------------------------------------------|

e|-----------------------------------10-10-10----10----10----10----10-----|
B|-10-----10-----10-----10-----10----------13b15-13b15-13b15-13b15-13b15--|
G|-12b14--12b14--12b14--12b14--12b14--------------------------------------|
D|------------------------------------------------------------------------|
A|------------------------------------------------------------------------|
E|------------------------------------------------------------------------|

e|----12-12--12----12----12----12----12----------12--15--15--15-----------|
B|-----------15b17-15b17-15b17-15b17-15b17--15b17--17--17--17--17r15------|
G|-----------------------------------------(^^^^^KEEP BENT UNTIL RELEASE)-|
D|------------------------------------------------------------------------|
A|------------------------------------------------------------------------|
E|------------------------------------------------------------------------|

e|--------------------------------------------|
B|--------------------------------13----13----|
G|----------10-------10-------10-----10-------|
D|----10h12----10h12----10h12-----------------|
A|--------------------------------------------|
E|--------------------------------------------|

e|------------------------------------------------------------|
B|-----------------10-13-11-10----------------10--13--13b15---|
G|-----------10h12---------------------10h12------------------|
D|----10h12---------------------10h12-------------------------|
A|------------------------------------------------------------|
E|------------------------------------------------------------|

e|---13-12-10-13-12-10-13-12-10--13121012x8(tapping '13-12-10-12' 8 times)
B|-----------------------------------------------------------------------|
G|-----------------------------------------------------------------------|
D|-----------------------------------------------------------------------|
A|-----------------------------------------------------------------------|
E|-----------------------------------------------------------------------|

e|---/12---15131213--(tapping '15-13-12-13 about 8 times)----------------|
B|-----------------------------------------------------------------------|
G|-----------------------------------------------------------------------|
D|-----------------------------------------------------------------------|
A|-----------------------------------------------------------------------|
E|-----------------------------------------------------------------------|

im not sure how many times you tap the
notes just listen to my video to get the idea,
give me feedback on the video please, 
thanks very much,
also if u want the backing track just inbox me on youtube.
LukeRD95
Добавлено: 11.11.2013
Другие материалы по этой песне:
  • Аккорды и текст

Страница создана 11.11.2013
http://primanota.ru/misc-unsigned-bands/luke-dec-guitar-chords.htm
Привет, Гость.
Предлагаем пройти революционный курс по гитаре.
Подарок от PrimaNota.Ru, забирай!