PrimaNota.ru - самый крупный в мире бесплатный архив песенных текстов, аккордов, табулатур и нот


Misc Unsigned Bands - Loon Lake - Cherry Lips - таба

Регистрация Запомнить меня
Войти через:  Facebook Google Twitter Vk Yandex Mail.ru

Misc Unsigned Bands - Loon Lake - Cherry Lips - таба

Печатать
Просмотров: 56
All barred sounds best

D             Bm     Em
Shaky feet but solid ground 
Em                                 D
Everyone's on valium and no one's around 
D                                  Bm              Em
She can't seem to find a friend in the whole of this town
Em                                          D
Maybe your not looking or your only looking down 


Chorus
         Bm
But it's almost night time 
                                      D
and you know that's the right time to dance 
         Bm
Put your cherry on your lips and shake your sexy hips 
              D
Tonight's the chance
       Bm             Em
ooh to dance, yeah to dance 

[Same chords for the rest of the song]

He won't even notice that you just put two pills down 
Except for when you cuddle him or the way you jump around 
He calls you by your last name but he thinks that it's your first 
Everyone's in love with him but your just feeling worse 

But it's almost night time 
and you know that's the right time to dance ooh 
Put your cherry on your lips and shake your sexy hips 
Tonight's the chance 
ooh to dance, yeah to dance 

Solo!
   +   1  +  2  +  3  +  4   +   1  +  2  +  3  +  4 
|--------------------------|-------------------------|
|--------------------------|-------------------------|
|--------------------------|-------------------------|
|--------------------------|---------------4-2-------|
|----2-5--5--4--4--2-2--0--|---------4-2-------------|
|--5-----------------------|---0-2-------------------|

   +   1  +  2  +  3  +  4   +   1  +  2  +   3  +  4 
|--------------------------|-------------------------|
|--------------------------|-------------------------|
|--------------------------|-------------------------|
|--------2---2----/4\------|----/4\------------------|
|-----------5---5--------2-|-----------2----2-5------|
|--------------------------|--------------5----------|


But it's almost night time 
and you know that's the right time to dance ooh 
Put your cherry on your lips and shake your sexy hips 
Tonight's the chance 
ooh to dance, yeah to dance 


[No chords for the last chorus, just get your friends to chant with you]
But it's almost night time 
and you know that's the right time to dance ooh 
Put your cherry on your lips and shake your sexy hips 
Tonight's the chance 
ooh to dance, yeah to dance 

Official loon lake website: www.loonlake.com.au/
Добавлено: 06.07.2013
Другие материалы по этой песне:
  • Аккорды и текст

Страница создана 06.07.2013
http://primanota.ru/misc-unsigned-bands/loon-lake-cherry-lips-chords.htm
Привет, Гость.
Предлагаем пройти революционный курс по гитаре.
Подарок от PrimaNota.Ru, забирай!