PrimaNota.ru - самый крупный в мире бесплатный архив песенных текстов, аккордов, табулатур и нот


Misc Unsigned Bands - Loco-motive - Thunder Road - таба

Регистрация Запомнить меня
Войти через:  Facebook Google Twitter Vk Yandex Mail.ru

Misc Unsigned Bands - Loco-motive - Thunder Road - таба

Печатать
Просмотров: 41
THUNDER ROAD
Transcribed By: 80'smetaladdict
Published: December 2nd, 2008

INTRO

[Rhythm]

e------------------------------|
b-----5--5-------5-5-------5-5-|
g-----5--5-------5-5-------5-5-|
d-3h4------5-3h4-----5-3h4-----|
a------------------------------|
E------------------------------|

(Ending 1)

e------------------------------|
b------------------------------|
g-----2---2-2-2-2--------------|
d-3h4-2---2-2-2-4p2------------|
a-----0---0-0-0-0---x-x--------|
E-------------------x-x--12\---|

Verse 1

[Rhythm]

e------------------------------|
b-----5--5-------5-5-------5-5-|
g-----5--5-------5-5-------5-5-|
d-3h4------5-3h4-----5-3h4-----|
a------------------------------|
E------------------------------|

[Lead]

e-------------------------------------|
b----(8)(8)-------(8)(8)-------(8)(8)-|
g-----9--9---------9--9---------9--9--|
d-----10-10--------10-10--------10-10-|
a-8h9-------10-8h9-------10-8h9-------|
E-------------------------------------|

(Ending 1.)

e-------------------|
b-------------------|
g-7--7-7-7--9--8--7-|
d-7--7-7-7--9--9--7-|
a-5--5-5-5--7--6--5-|
E-------------------|

(Ending 2.)

e---------------------------|
b--------------------(0)----|
g-2--2-2-2--4-----2---1-----|
d-2--2-2-2--4-x-x-2-x-2-----|
a-0--0-0-0--2-x-x---x----x\-|
E------------------------x\-|

(Ending 3.)

e-------------------|
b-------------------|
g-9--9-9---7--6-----|
d-9--9-9---7--7--7\-|
a-7--7-7---5--4--7\-|
E-------------------|

(Ending 4.)

e-5--5-5-5------------|---|-|-|-|-|-|-|-|
b-5--5-5-5--------(5)-|(5)|-|-|-|-|-|-|-|
g-2--2-2-2---------2--|(2)|-|-|-|-|-|-|-|
d-2--2-2-4p2-------2--|(2)|-|-|-|-|-|-|-|
a-0--0-0-0---------0--|(0)|-|-|-|-|-|-|-|
E------------3b3.5----|---|-|-|-|-|-|-|-|

Chorus

[Rhythm]x3

e----3-3--2-----------------------------|
b----3-3--3-----------------------------|
g----0-0--2-----------------------------|
d-0--0-0--0---4---2---------------------|
a-x-----------0-x-0-x-2-----------------|
E-3-------------x---x-0-----------------|

[Lead]

e-8------------------------|----------5\-|
b-8--7-7--8----------------|----------5\-|
g-5--7-7--7----------------|-------------|
d----7-7--7----------------|-------------|
a---------------9---7------|-7~-9p7~~----|
E-------------x---x---x-7~-|-------------|

[Lead Bit 2]

e-8------------------------|-----------------|
b-8--7-7--8----------------|-----8~-10p8~----|
g-5--7-7--7----------------|-7h9-------------|
d----7-7--7----------------|-----------------|
a---------------9---7------|--------------x\-|
E-------------x---x---x-7~-|--------------x\-|

------------------|
------------------|
-7-9p7------------|
-------9p7--------|
-----------9~~~~\-|
------------------|

[Lead Bit 3]

e-8------------------------------8-8----------------|
b-8--7-7--8-----------------8/10-----10~~~~~~~~~~~\-|
g-5--7-7--7---------------------------9~~~~~~~~~~~\-|
d----7-7--7-----------------------------------------|
a---------------9---7-------------------------------|
E-------------x---x---x-7~~-------------------------|

Bridge to Verse 2

e------------------|
b-8-8-7~-----------|
g-9-7-7~-9---------|
d----------7h9-----|
a------------------|
E--------------12\-|

Verse 2

[Rhythm]
          
e-------------------------------------|------------------|
b-----5--5-------5-5-------5-5--------|--------(5)-------|
g-----5--5-------5-5-------5-5--------|--------(5)-------|
d-3h4------5-3h4-----5-3h4------------|------------------|
a-------------------------------------|------------------|
E-------------------------------------|------------------|

[Lead]

e-------------------------------------|------------------|
b-------------------------------------|-8-8-7------------|
g-----9--9---------9--9---------9--9--|-9-7-7-9----------|
d-----10-10--------10-10--------10-10-|---------7=h9-----|
a-8h9-------10-8h9-------10-8h9-------|------------------|
E-------------------------------------|--------------12\-|

(Ending 1)

e--------------------|
b--------------------|
g-7--7-7-7---9--8--8-|
d-7--7-7-7---9--9--9-|
a-5--5-5-5---7--6--9-|
E------------------7-|

(Ending 2)

e---------------------------|-|-|-|-|-|-|-|-|
b------------3---3----------|-|-|-|-|-|-|-|-|
g-2--2-2-2---2---2--------2-|-|-|-|-|-|-|-|-|
d-2--2-2-2---5-x-4--------2-|-|-|-|-|-|-|-|-|
a-0--0-0-0--(0)x(0)-------0-|-|-|-|-|-|-|-|-|
E-------------------3b3.5---|-|-|-|-|-|-|-|-|

Chorus 2

[Rhythm]x2

e----3-3--2----------------|--------------|
b----3-3--3----------------|--------------|
g----0-0--2----------------|--------------|
d-0--0-0--0---4---2--------|--------------|
a-x-----------0-x-0-x-2----|--------------|
E-3-------------x---x-0----|--------------|

[Lead]

e-8------------------------|------------------|
b-8--7-7--8----------------|-----10~-8~---10\-|
g-5--7-7--7----------------|-7/9-----7~----9\-|
d----7-7--7----------------|------------------|
a---------------9---7------|------------------|
E-------------x---x---x-7~-|------------x-----|

[Lead Bit 2]

e-8------------------------|------------------------------|
b-8--7-7--8----------------|-------17-------15b15.5-------|
g-5--7-7--7----------------|-14h16-16b18~~~---------16~~~-|
d----7-7--7----------------|------------------------------|
a---------------9---7------|------------------------------|
E-------------x---x---x-7~-|------------------------------|

Bridge/End of Chorus 2

[Rhythm]

e----3-3--2----------------|
b----3-3--3----------------|
g----0-0--2----------------|
d-0--0-0--0---4---2--------|
a-x-----------0-x-0-x-2----|
E-3-------------x---x-0----|

[Lead]

e------------------------------------------|
b------------------------------------------|
g---------9--------------------------------|
d---------10-----------9~~~~-x\~~~~~~~~~~~-|
a-10--8h9------9---7---------x\~~~~~~~~~~~-|
E------------x---x---x---------------------|

Solo

e------------------------------------------|
b-15b17-(17)-(17)~-14-15p14----------------|
g---------------------------16-14h15-------|
d------------------------------------16-16-|
a------------------------------------------|
E------------------------------------------|

-------------------------------------|-14------------------------|
----------14h15----------10b13r------|----17p14------------------|
-------14-------16~~~\-7--------9-9~-|----------16-16p14---------|
-14h16-------------------------------|-------------------16~-14~-|
-------------------------------------|---------------------------|
-------------------------------------|---------------------------|

-14-----------------------------------------|--------------------|
----17p14----15-----------------------------|--------------------|
----------16----16--------------------------|-0----------0h1-----|
-------------------16p14-------------14~~~~-|---2p0---4~-----2~~-|
-------------------------16-15-14-----------|--------------------|
----------------------------------16--------|-------0------------|

-------------2------2-----------------------0-------------------|
-------------2--------5p2-------------------0-------------------|
---4~-2~--------------------0h1--------2----0-/9-9p7------------|
---4~-2~------------------------2---4~---4\----------9----------|
---------3h4----------------------------------------------------|
-0------------------------0-------0--------------------12tr~~~~-|

[Rhythm Under Solo] 4x I believe

e------------------------------|
b-----5--5-------5-5-------5-5-|
g-----5--5-------5-5-------5-5-|
d-3h4------5-3h4-----5-3h4-----|
a------------------------------|
E------------------------------|

Interlude 

[Rhythm] x3

e------------------------------|
b-----5--5-------5-5-------5-5-|
g-----5--5-------5-5-------5-5-|
d-3h4------5-3h4-----5-3h4-----|
a------------------------------|
E------------------------------|

(Ending at end of 3rd time)

e--------------------------------|--|--|-|-|-|-|-|-|
b-----5--5-------5-5-------5-5---|--|--|-|-|-|-|-|-|
g-----5--5-------5-5-------5-5-2-|--|--|-|-|-|-|-|-|
d-3h4------5-3h4-----5-3h4-----2-|--|--|-|-|-|-|-|-|
a------------------------------0-|--|--|-|-|-|-|-|-|
E--------------------------------|--|--|-|-|-|-|-|-|

[Lead] Slowly Increase Volume

e--------------------------------------------------|
b----------------------------------------------5---|
g-2---2---2--2--2--2-2-2-2-2-2-2-2-2-2-2-------5-2-|
d-2---2---2--2--2--2-2-2-2-2-2-2-2-2-2-2-5-3h4---2-|
a-0---0---0--0--0--0-0-0-0-0-0-0-0-0-0-0---------0-|
E--------------------------------------------------|

Outro

e-------------------|
b-------------------|
g-7--7-7-7--9--8--7-|
d-7--7-7-7--9--9--7-|
a-5--5-5-5--7--6--5-|
E-------------------|

e---------------------------|
b--------------------(0)----|
g-2--2-2-2--4-----2---1-----|
d-2--2-2-2--4-x-x-2-x-2-----|
a-0--0-0-0--2-x-x---x----x\-|
E------------------------x\-|

e-------------------|
b-------------------|
g-9--9-9---7--6-----|
d-9--9-9---7--7--7\-|
a-7--7-7---5--4--7\-|
E-------------------|

e-5--5-5-5------------|---|-|-|-|-|-|-|-|-|-|-|-|
b-5--5-5-5--------(5)-|(5)|-|-|-|-|-|-|-|-|-|-|-|
g-2--2-2-2---------2--|(2)|-|-|-|-|-|-|-|-|-|-|-|
d-2--2-2-4p2-------2--|(2)|-|-|-|-|-|-|-|-|-|-|-|
a-0--0-0-0---------0--|(0)|-|-|-|-|-|-|-|-|-|-|-|
E------------3b3.5----|---|-|-|-|-|-|-|-|-|-|-|-|

[Rhythm]

e---|
b---|
g-2-|
d-2-|
a-0-|
E---|

[Lead]

e-------------|
b-------------|
g-------------|
d-x\~~~~~~~~~-|
a-x\~~~~~~~~~-|
E-------------|
Добавлено: 18.09.2013
Другие материалы по этой песне:
  • Аккорды и текст

Страница создана 18.09.2013
http://primanota.ru/misc-unsigned-bands/loco-motive-thunder-road-chords.htm
Привет, Гость.
Предлагаем пройти революционный курс по гитаре.
Подарок от PrimaNota.Ru, забирай!