PrimaNota.ru - самый крупный в мире бесплатный архив песенных текстов, аккордов, табулатур и нот


Misc Unsigned Bands - Little Red - Witchdoctor - таба, видео

Регистрация Запомнить меня
Войти через:  Facebook Google Twitter Vk Yandex Mail.ru

Misc Unsigned Bands - Little Red - Witchdoctor - таба, видео

Печатать
Просмотров: 35
-------------------------------------------------------------------------------
                             Witchdoctor - Little Red
-------------------------------------------------------------------------------
Tabbed by: Jamie Callanan
Email: shamedog30@hotmail.com

Tuning: Standard

INTRO

e|----------------------------------------------------------------------|
B|-1-3-1-----3---3---3---1-3-1---------------------------3---3---3------|
G|-------3-0-3-0-3-0-3---------3---2---2---2---2-3-2---0-3-0-3-0-3------|
D|-------------------------------3-3-3-3-3-3---------3------------------|
A|----------------------------------------------------------------------|
E|----------------------------------------------------------------------|

e|-------------------------------------------------------------------------|
B|-1-3-1-------------------------------------------------------------------|
G|-------3---2---2---2-----------------------------------------------------|
D|---------3-3-3-3-3-3-----------------------------------------------------|
A|-------------------------------------------------------------------------|
E|-------------------------------------------------------------------------|

VERSE
   All Palm Mute except the 1st 4 notes the 1st time through and last 4 notes last time 
if u get me lol.
  |  -   -   -   -   -   -   -   -   -   -  | x4
e|------------------------------------------------------------------------|
B|-----------3---3---3---1-3-1--------------------------------------------|
G|-2-3-2---0-3-0-3-0-3---------3---2---2---2------------------------------|
D|-------3-----------------------3-3-3-3-3-3-----------2-3-2--------------|
A|-----------------------------------------------------------3------------|
E|------------------------------------------------------------------------|

CHORUS   Clean
  |   -   -   -   -   | x2
e|-1---------1----5--------------------------------------------------------|
B|-1---------3----7----------------3---------------------------------------|
G|-2---------3----7----------------5b7---------/14-------------------------|
D|-3---------3----7---------------------------------14~----12--------------|
A|-3---------1----5--------------------------------------------------------|
E|-------------------------------------------------------------------------|

OUTRO x 8

e|---3--------2-2---------------------------------------------------|
B|---3--------3-3---/6-6--------------------------------------------|
G|---0--------2-2---/5-5--------------------------------------------|
D|---0--------0-0----3-3--------------------------------------------|
A|---x--------------------------------------------------------------|
E|---3--------------------------------------------------------------|

| /  slide up
| \  slide down
| h  hammer-on
| p  pull-off
| ~  vibrato
| +  harmonic
| x  Mute note
===============================================================================

Official website: http://www.myspace.com/littleredmusic
Добавлено: 27.12.2013
Другие материалы по этой песне:
  • Аккорды и текст

Страница создана 27.12.2013
http://primanota.ru/misc-unsigned-bands/little-red-witchdoctor-chords.htm
Привет, Гость.
Предлагаем пройти революционный курс по гитаре.
Подарок от PrimaNota.Ru, забирай!