PrimaNota.ru - самый крупный в мире бесплатный архив песенных текстов, аккордов, табулатур и нот


Misc Unsigned Bands - Liquid Coma - Seven Summers - бас-таба

Регистрация Запомнить меня
Войти через:  Facebook Google Twitter Vk Yandex Mail.ru

Misc Unsigned Bands - Liquid Coma - Seven Summers - бас-таба

Печатать
Просмотров: 62
----------------------------------------------------------------------------
			     Seven Summers - Liquid Coma
----------------------------------------------------------------------------

Tabbed By : Bass-Or-Nothing
e-mail: rockersn@hotmail

Tuning: standard

Should be online if you're interested


Intro

G|--------------------------------------------------------------------------|
D|--------------------------------------------------------------------------|
A|--5h7---5h7---5--5h7-----5h7----5h7-----5---------------------------------|
E|--------------------------------------------------------------------------|

 rift 1

G|--------------------------------------------------------------------------|
D|--------------------------------------------------------------------------|
A|--5h7--7-7-7-7-7-7-7----5h7---7-7-7-7-7-7-7-----5-5-5-5-5-5-5-5-----------|
E|--------------------------------------------------------------------------|

G|--------------------------------------------------------------------------|
D|--------------------------------------------------------------------------|
A|--5h7-7-7-7-7-7-7-7-------------------------------------------------------|
E|--------------------------------------------------------------------------|

its probably not the right number of notes but its along those lines. i kinda alternate 
time i play it.

 end of that rift
G|--------------------------------------------------------------------------|
D|--9----7---5----4--0--4---------------------------------------------------|
A|--------------------------------------------------------------------------|
E|--------------------------------------------------------------------------|

Rif 2
G|---------------------------------------------------------------------------|
D|---------------------------------------------------------------------------|
A|--2------------------------------------------------------------------------|
E|-----2---3---5-------------------------------------------------------------|

if you listen you'll hear the right number of times

bass solo ish thing
G|--------12-11-9------------------------------------------------------------|
D|---9-9-----------7-7-7-7--11-12--------------------------------------------|
A|---------------------------------------------------------------------------|
E|---------------------------------------------------------------------------|

i just vary on that each time

end of that part
G|--12-11-9-----------------------------------------------------------------|
D|-----------12-11-9--------------------------------------------------------|
A|--------------------12-11-------------------------------------------------|
E|---------------------------0----------------------------------------------|

last bit
G|--------------------------------------------------------------------------|
D|--------------------------------------------------------------------------|
A|--7--5--3--2----7--5--3--2----7--5--3--2---2222--3333---------------------|
E|--------------------------------------------------------------------------|

thats pretty much it
Добавлено: 21.08.2013
Другие материалы по этой песне:
  • Аккорды и текст

Страница создана 21.08.2013
http://primanota.ru/misc-unsigned-bands/liquid-coma-seven-summers-chords.htm
Привет, Гость.
Предлагаем пройти революционный курс по гитаре.
Подарок от PrimaNota.Ru, забирай!