PrimaNota.ru - самый крупный в мире бесплатный архив песенных текстов, аккордов, табулатур и нот


Misc Unsigned Bands - Lifes Breath - Through Closed Eyes - таба, видео

Регистрация Запомнить меня
Войти через:  Facebook Google Twitter Vk Yandex Mail.ru

Misc Unsigned Bands - Lifes Breath - Through Closed Eyes - таба, видео

Печатать
Просмотров: 65
Drop D
Intro

(Guitar I)
---------------------------------------------------------------------------|
---------------------------------------------------------------------------|
---------------------------------------------------------------------------|(X4)
---0-0----0----0----0----0---------------0-0----0----0----0----0--5h6p5----|
---0-0--3-0--2-0--5-0--3-0--3p2p0-3p2p0--0-0--3-0--2-0--5-0--3-0--------6--|
---0-0----0----0----0----0---------------0-0----0----0----0----0-----------|


(Guitar II) come in on 2nd time
---------------------------------------------------------------------------|
-------------------------------------------------------------------7h8p7---|
--------5----4----7----5----7p5p0-7p5p0-------5----4----7----5-----------8-|(X3)
---0-0----0----0----0----0---------------0-0----0----0----0----0-----------|
---0-0----0----0----0----0---------------0-0----0----0----0----0-----------|
---0-0----0----0----0----0---------------0-0----0----0----0----0-----------|


Verse

(Guitar 1) all tremolo
-------------------------------------------------------------------------------|
-------------------------------------------------------------------------------|
-------------------------------------------------------------------------------|
-------------------------------0-0------------------5--3--6--5-----------------|
-----3--2--3--5--3--2--3-------0-0----------3--2--3----------------------------|
-------------------------------0-0---------------------------------------------|


(Guitar 2)
---------------------------------------------------------------------------|
---------------------------------------------------8--6--9--8--------------|
-----5--4--5--7--5--4--5------------------5--4--5--------------------------|
-------------------------------0-0-----------------------------------------|
-------------------------------0-0-----------------------------------------|
-------------------------------0-0-----------------------------------------|
Добавлено: 05.10.2013
Другие материалы по этой песне:
  • Аккорды и текст

Страница создана 05.08.2013
http://primanota.ru/misc-unsigned-bands/lifes-breath-through-closed-eyes-chords.htm
Привет, Гость.
Предлагаем пройти революционный курс по гитаре.
Подарок от PrimaNota.Ru, забирай!