PrimaNota.ru - самый крупный в мире бесплатный архив песенных текстов, аккордов, табулатур и нот


Misc Unsigned Bands - Lest We Forget - Embers - таба, видео

Регистрация Запомнить меня
Войти через:  Facebook Google Twitter Vk Yandex Mail.ru

Misc Unsigned Bands - Lest We Forget - Embers - таба, видео

Печатать
Просмотров: 48
-----------------------------------------------------------------------------
                             EMBERS - Lest We Forget
-----------------------------------------------------------------------------
Tabbed by: Harrylb14
E-mail: hlingardbright@hotmail.com

Tuning: Down 1 Whole Step (low to high: D-G-C-F-A-D)

Tempo: 80bpm
Time Signature: 4/4

Guitar 1: Clean
Guitar 2: Clean
Guitar 3: Rhythm Distortion
Guitar 4: Solo Distortion
Guitar 5: Solo Distortion

INTRO.
  Guitar 1
   E E E  E E  E E E  E E E E E E E E  E E E E E E E E  E E E E E E E E
D|-------------------|----------------|---------------|-----------------|
A|---8------8------8-|----8-----8-----|--5-----5-----5|-----5-----5-----|
F|-------------------|----------------|---------------|-----------------|
C|-----9-------9-----|9-----9-----9---|----5-----5----|-5-----5-----5---|
G|-7------7------7---|--7-----7-----7/|3-----3-----3--|---3-----3-----3/|
D|-------------------|----------------|---------------|-----------------|
 
   E E E E E E E E  E E E E E E E E  E E E E E E E E  E E E E E E S S E
D|----------------|-----------------|---------------|-------------------|
A|----------------|-----------------|---------------|-------------------|
F|-----4-----4----|-4-----4-----4---|----8-----8----|-8-----8-----8h9p8-|
C|----------------|-----------------|---------------|-------------------|
G|---5-----5-----5|-----5-----5-----|--9-----9-----9|-----9-----9-------|
D|-3-----3-----3--|---3-----3-----3/|7-----7-----7--|---7-----7---------|

  Guitar 1
   E E E  E E  E E E   E E E E E E E E  E E E E E E E E  E E E E E E E E
D|--------------------|----------------|---------------|-----------------|
A|---8------8------8--|----8-----8-----|--5-----5-----5|-----5-----5-----|
F|--------------------|----------------|---------------|-5-----5-----5---|
C|-----9-------9------|9-----9-----9---|----5-----5----|-----------------|
G|-7------7------7----|--7-----7-----7/|3-----3-----3--|---3-----3-----3/|
D|--------------------|----------------|---------------|-----------------|
 |Guitar 3            |                |               |                 |
 | Q.  E   S E  S  E E|(E) S S H     Q |Q.   Q.   E  E |  H.          Q  |
D|--------------------|----------------|---------------|-----------------|
A|-12~-12-12/10-10/8-8|(8)-8p7h8~---12-|13~-/5-/-13-13-|-(13)---------13-|
F|--------------------|----------------|---------------|-----------------|
C|--------------------|----------------|---------------|-----------------|
G|--------------------|----------------|---------------|-----------------|
D|--------------------|----------------|---------------|-----------------|
 
   E E E E E E E E   E E E E E E E E  E E E E E E E E  E E E E E E S S E
D|-----------------|-----------------|---------------|--------------------||
A|-----------------|-----------------|---------------|--------------------||
F|-----4-----4-----|-4-----4-----4---|----8-----8----|-8-----8-----8h9p8--||
C|-----------------|-----------------|---------------|--------------------||
G|---5-----5-----5-|-----5-----5-----|--9-----9-----9|-----9-----9--------||
D|-3-----3-----3---|---3-----3-----3/|7-----7-----7--|---7-----7----------||
 | E E  E E E E E E|E  E E E E  E E E| Q  Q    Q  Q  | H      Q   S S   E ||
D|-----------------|-----------------|---------------|--------------------||
A|-12--------------|-----------------|---/7~--/8~/12-|-10~----16-16b17br16||
F|---12------------|-----------------|/9~------------|--------------------||
C|-----12-9-7-5-7-9|10-9-7-5-10-9-7-5|---------------|--------------------||
G|-----------------|-----------------|---------------|--------------------||
D|-----------------|-----------------|---------------|--------------------||

VERSE 1

  Guitar 1
   E E E  E E  E E E   E E E E E E E E  E E E E E E E E  E E E E E E E E
D|-------------------|----------------|----------------|-----------------|
A|---8------8------8-|----8-----8-----|--5-----5-----5-|-----5-----5-----|
F|-------------------|----------------|----------------|-----------------|
C|-----9-------9-----|9-----9-----9---|----5-----5-----|-5-----5-----5---|
G|-7------7------7---|--7-----7-----7/|3-----3-----3---|---3-----3-----3/|
D|-------------------|----------------|----------------|-----------------|
 |Guitar 2           |                |                |                 |
 | E SSSSE. SSE SSS  |E SSSSE. SSE SSS|E SSSSE. SSE SSS|E SSSSE. SSE SSS |
D|-------------------|----------------|----------------|-----------------|
A|-8-88x88--888-888--|8-88x88--888-888|5-55x55--555-555|5-55x55--555-555-|
F|-9-99x99--999-999--|9-99x89--999-999|5-55x55--555-555|5-55x55--555-555-|
C|-9-99x99--999-999--|9-99x89--999-999|5-55x55--555-555|5-55x55--555-555-|
G|-7-77x77--777-777--|7-77x87--777-777|3-33x33--333-333|3-33x33--333-333-|
C|-------------------|----------------|----------------|-----------------|
 
   E E E E E E E E   E E E E E E E E  E E E E E E E E   E E E E E E S S E
D|-----------------|-----------------|----------------|-------------------|
A|-----------------|-----------------|----------------|-------------------|
F|-----4-----4-----|-4-----4-----4---|----8-----8-----|-8-----8-----8h9p8-|
C|-----------------|-----------------|----------------|-------------------|
G|---5-----5-----5-|-----5-----5-----|--9-----9-----9-|-----9-----9-------|
D|-3-----3-----3---|---3-----3-----3/|7-----7-----7---|---7-----7---------|
 |E SSSSE. SSE SSS |E SSSSE. SSE SSS |E SSSSE. SSE SSS|E SSSSE. SSE SSS   |
D|-----------------|-----------------|----------------|-------------------|
A|-----------------|-----------------|----------------|-------------------|
F|4-44x44--444-444-|4-44x44--444-444-|8-88x88--888-888|8-88x88--888-888---|
C|5-55x55--555-555-|5-55x55--555-555-|9-99x99--999-999|9-99x99--999-999---|
G|5-55x55--555-555-|5-55x55--555-555-|9-99x99--999-999|9-99x99--999-999---|
C|3-33x33--333-333-|3-33x33--333-333-|7-77x77--777-777|7-77x77--777-777---|

  Guitar 1
  E E E  E E  E E E   E E E E E E E E  E E E E E E E E  E E E E E E E E
D|-------------------|----------------|---------------|-----------------|
A|---8------8------8-|----8-----8-----|--5-----5-----5|-----5-----5-----|
F|-------------------|----------------|---------------|-----------------|
C|-----9-------9-----|9-----9-----9---|----5-----5----|-5-----5-----5---|
G|-7------7------7---|--7-----7-----7/|3-----3-----3--|---3-----3-----3/|
D|-------------------|----------------|---------------|-----------------|
 |Guitar 3           |                |               |                 |
 | W                 | W              | W             | H.          Q   |
D|-------------------|----------------|---------------|-----------------|
A|-------------------|----------------|---------------|-----------------|
F|-------------------|----------------|---------------|-----------------|
C|-2~----------------|-2~-------------|-10~-----------|-10~--------(10)\|
G|-2~----------------|-2~-------------|-10~-----------|-10~--------(10)\|
D|-0~----------------|-0~-------------|-8-~-----------|-8-~--------(8)-\|
 
  E E E E E E E E   E E E E E E E E  E E E E E E E E  E E E E E E S S E
D|----------------|-----------------|---------------|-------------------||
A|----------------|-----------------|---------------|-------------------||
F|-----4-----4----|-4-----4-----4---|----8-----8----|-8-----8-----8h9p8-||
C|----------------|-----------------|---------------|-------------------||
G|---5-----5-----5|-----5-----5-----|--9-----9-----9|-----9-----9-------||
D|-3-----3-----3--|---3-----3-----3/|7-----7-----7--|---7-----7---------||
 | W              | W               | W             | W                 ||
D|----------------|-----------------|---------------|-------------------||
A|----------------|-----------------|---------------|-------------------||
F|----------------|-----------------|---------------|-------------------||
C|-5~-------------|-5~--------------|-9~------------|-9~----------------||
G|-5~-------------|-5~--------------|-9~------------|-9~----------------||
D|-3~-------------|-3~--------------|-7~------------|-7~----------------||

CHORUS
  Guitar 1
   SSSSE. E. E. E.  Q  H       E  E    E  H     S S E E  E.  E.E. E.  E E
D|-----7-----------|-----------------|-7--10~---7------|-------7---------|
A|---8----10-------|---8~-----10--8--|-----------10-8--|-10--10---10--8--|
F|-79-9------9--7--|9----------------|----------------7|----------------7|
C|-----------------|-----------------|-----------------|-----------------|
G|-----------------|-----------------|-----------------|-----------------|
D|-----------------|-----------------|-----------------|-----------------|
 |Guitar 2         |                 |                 |                 |
 | E SSSSE. SSSSSSS| E SSSSE. SSSSSSS| E SSSSE. SSSSSSS| E SSSSE. SSSSSSS|
D|-----------------|-----------------|-----------------|-----------------|
A|-----------------|-----------------|-----------------|-----------------|
F|-5-55x55--555x555|-5-55x55--555x555|-----------------|-7-77x77--777x777|
C|-5-55x55--555x555|-5-55x55--555x555|-5-55x55--555x555|-7-77x77--777x777|
G|-3-33x33--333x333|-3-33x33--333x333|-5-55x55--555x555|-5-55x55--555x555|
D|-----------------|-----------------|-3-33x33--333x333|-----------------|
   E. H   (E.)  E    E. E. E.  E.E E   W                 E.E.E. S E  E  E
D|----8~-----------|----7------------|-----------------|------------------||
A|-----------------|-------10--8-----|-----------------|-8-7--------------||
F|-9------------7--|-9-----------9-7-|-7~--------------|-----7------------||
C|-----------------|-----------------|-----------------|-------10-9-10--9-||
G|-----------------|-----------------|-----------------|------------------||
D|-----------------|-----------------|-----------------|------------------||
 | E SSSSE. SSSSSSS| E SSSSE. SSSSSSS| E SSSSE. SSSSSSS| E SSSSE. SSSSSSS || 
D|-----------------|-----------------|-----------------|------------------||
A|-----------------|-----------------|-----------------|------------------||
F|-----------------|-5-55x55--555x555|-----------------|-7-77x77--777x777-||
C|-7-77x77--777x777|-5-55x55--555x555|-5-55x55--555x555|-7-77x77--777x777-||
G|-7-77x77--777x777|-3-33x33--333x333|-5-55x55--555x555|-5-55x55--555x555-||
D|-5-55x55--555x555|-----------------|-3-33x33--333x333|------------------||

VERSE 2.
 
Guitar 1
  E E E  E E  E E E   E E E E E E E E  E E E E E E E E  E E E E E E E E
D|------------------|----------------|----------------|-----------------|
A|---8-----8------8-|----8-----8-----|--5-----5-----5-|-----5-----5-----|
F|------------------|----------------|----------------|-----------------|
C|-----9------9-----|9-----9-----9---|----5-----5-----|-5-----5-----5---|
G|-7-----7------7---|--7-----7-----7/|3-----3-----3---|---3-----3-----3/|
D|------------------|----------------|----------------|-----------------|
 |Guitar 3          |                |                |                 |
 | SSSSSSSSSSSSSSSS |SSSSSSSSSSSSSSSS|SSSSSSSSSSSSSSSS|SSSSSSSSSSSSSSSS |
D|------------------|----------------|----------------|-----------------|
A|------------------|----------------|----------------|-----------------|
F|------------------|----------------|--5--5-5--5--5-5|--5--5-5--5--5-5-|
C|---2--2-2--2--2-2-|--2--2-2--2--2-2|--5--5-5--5--5-5|--5--5-5--5--5-5-|
G|---2--2-2--2--2-2-|--2--2-2--2--2-2|3333333333333333|3333333333333333-|
D|-0000000000000000-|0000000000000000|----------------|-----------------|
P.M.. .. . .. .. .   .. .. . .. .. .  .. .. . .. .. .  .. .. . .. .. 

  E E E E E E E E   E E E E E E E E  E E E E E E E E   E E E E E E S S E
D|----------------|-----------------|----------------|-------------------|
A|----------------|-----------------|----------------|-------------------|
F|-----4-----4----|-4-----4-----4---|----8-----8-----|-8-----8-----8h9p8-|
C|----------------|-----------------|----------------|-------------------|
G|---5-----5-----5|-----5-----5-----|--9-----9-----9-|-----9-----9-------|
D|-3-----3-----3--|---3-----3-----3/|7-----7-----7---|---7-----7---------|
 |SSSSSSSSSSSSSSSS|SSSSSSSSSSSSSSSS |SSSSSSSSSSSSSSSS|SSSSSSSSSSSSSSSS   |
D|----------------|-----------------|----------------|-------------------|
A|----------------|-----------------|----------------|-------------------|
F|----------------|-----------------|----------------|-------------------|
C|--5--5-5--5--5-5|--5--5-5--5--5-5-|--9--9-9--9--9-9|--9--9-9--9--9-9---|
G|--5--5-5--5--5-5|--5--5-5--5--5-5-|--9--9-9--9--9-9|--9--9-9--9--9-9---|
D|3333333333333333|3333333333333333-|7777777777777777|7777777777777777---|
  .. .. . .. .. .  .. .. . .. .. .   .. .. . .. .. .  .. .. . .. .. .

  E E E  E E  E E E   E E E E E E E E  E E E E E E E E  E E E E E E E E
D|-------------------|----------------|---------------|-----------------|
A|---8------8------8-|----8-----8-----|--5-----5-----5|-----5-----5-----|
F|-------------------|----------------|---------------|-----------------|
C|-----9-------9-----|9-----9-----9---|----5-----5----|-5-----5-----5---|
G|-7------7------7---|--7-----7-----7/|3-----3-----3--|---3-----3-----3/|
D|-------------------|----------------|---------------|-----------------|
 | Q   E  SSSSSS Q   |Q   E  SSSSSS Q |Q   E  SSSSSS Q|Q   E  SSSSSS Q|
D|-------------------|----------------|---------------|-----------------|
A|-------------------|----------------|---------------|-----------------|
F|-------------------|----------------|5---5----------|5---5------------|
C|-2---2-------------|2---2-----------|5---5--55-55---|5---5--55-55-----|
G|-2---2--22-22------|2---2--22-22----|3---3--33-33---|3---3--33-33-----|
D|-0---0--00-00------|0---0--00-00----|---------------|-----------------|
          .. ..              .. ..            .. ..           .. ..

  E E E E E E E E   E E E E E E E E  E E E E E E E E   E E E E E E S S E
D|----------------|-----------------|---------------|-------------------||
A|----------------|-----------------|---------------|-------------------||
F|-----4-----4----|-4-----4-----4---|----8-----8----|-8-----8-----8h9p8-||
C|----------------|-----------------|---------------|-------------------||
G|---5-----5-----5|-----5-----5-----|--9-----9-----9|-----9-----9-------||
D|-3-----3-----3--|---3-----3-----3/|7-----7-----7--|---7-----7---------||
 | Q   E  SSSSSS Q| Q   E  SSSSSS Q | Q   E  SSSSSSQ| Q   E  SSSSSS Q   ||
D|----------------|-----------------|---------------|-------------------||
A|----------------|-----------------|---------------|-------------------||
F|----------------|-----------------|---------------|-------------------||
C|-5---5----------|-5---5-----------|-9---9---------|-9---9-------------||
G|-5---5--55-55---|-5---5--55-55----|-9---9--99-99--|-9---9--99-99------||
D|-3---3--33-33---|-3---3--33-33----|-7---7--77-77--|-7---7--77-77------||
          .. ..            .. ..             .. ..           .. ..

CHORUS
  Guitar 4
   SSSSE. E. E. E.  Q  H       E  E    E  H     S S E E  E.  E.E. E.  E E
D|-----7-----------|-----------------|-7--10~---7------|-------7---------|
A|o--8----10-------|---8~-----10--8--|-----------10-8--|-10--10---10--8--|
F|-79-9------9--7--|9----------------|----------------7|----------------7|
C|-----------------|-----------------|-----------------|-----------------|
G|o----------------|-----------------|-----------------|-----------------|
D|-----------------|-----------------|-----------------|-----------------|
 |Guitar 3         |                 |                 |                 |
 | E E E E E E E E | E E E E E E E E | E E E E E E E E | E E E E E E E E |
D|-----------------|-----------------|-----------------|-----------------|
A|o----------------|-----------------|-----------------|-----------------|
F|-5-5-5-5-5-5-5-5-|-5-5-5-5-5-5-5-5-|-----------------|-7-7-7-7-7-7-7-7-|
C|-5-5-5-5-5-5-5-5-|-5-5-5-5-5-5-5-5-|-5-5-5-5-5-5-5-5-|-7-7-7-7-7-7-7-7-|
G|o3-3-3-3-3-3-3-3-|-3-3-3-3-3-3-3-3-|-5-5-5-5-5-5-5-5-|-5-5-5-5-5-5-5-5-|
D|-----------------|-----------------|-3-3-3-3-3-3-3-3-|-----------------|

   E. H   (E.)  E    E. E. E.  E.E E   W                 E.E.E. S E  E  E
D|----8~-----------|----7------------|-----------------|------------------||
A|-----------------|-------10--8-----|-----------------|-8-7-------------o||
F|-9------------7--|-9-----------9-7-|-7~--------------|-----7------------||
C|-----------------|-----------------|-----------------|-------10-9-10--9-||
G|-----------------|-----------------|-----------------|-----------------o||
D|-----------------|-----------------|-----------------|------------------||
 | E E E E E E E E | E E E E E E E E | E E E E E E E E | E E E E E E E E  || 
D|-----------------|-----------------|-----------------|------------------||
A|-----------------|-----------------|-----------------|-----------------o||
F|-----------------|-5-5-5-5-5-5-5-5-|-----------------|-7-7-7-7-7-7-7-7--||
C|-7-7-7-7-7-7-7-7-|-5-5-5-5-5-5-5-5-|-5-5-5-5-5-5-5-5-|-7-7-7-7-7-7-7-7--||
G|-7-7-7-7-7-7-7-7-|-3-3-3-3-3-3-3-3-|-5-5-5-5-5-5-5-5-|-5-5-5-5-5-5-5-5-o||
D|-5-5-5-5-5-5-5-5-|-----------------|-3-3-3-3-3-3-3-3-|------------------||
 
   W
D|-----------------||
A|-----------------||
F|-----------------||
C|-----------------||
G|-10~-------------||
D|-----------------||
 | W               ||
D|-----------------||
A|-----------------||
F|-----------------||
C|-5~--------------||
G|-5~--------------||
D|-3~--------------||

BRIDGE

 Guitar 1
   E E E  E E  E E E   E E E E E E E E  E E E E E E E E  E E E E E E E E
D|-------------------|----------------|---------------|-----------------|
A|---8------8------8-|----8-----8-----|--5-----5-----5|-----5-----5-----|
F|-------------------|----------------|---------------|-----------------|
C|-----9-------9-----|9-----9-----9---|----5-----5----|-5-----5-----5---|
G|-7------7------7---|--7-----7-----7/|3-----3-----3--|---3-----3-----3/|
D|-------------------|----------------|---------------|-----------------|
 |Guitar 2           |                |               |                 |
D|-------------------|----------------|---------------|-----------------|
A|-------------------|----------------|---------------|-----------------|
F|-------------------|----------------|---------------|-----------------|
C|-------------------|----------------|---------------|-----------------|
G|-------------------|----------------|---------------|-----------------|
D|-------------------|----------------|---------------|-----------------|
 
  E E E E E E E E   E E E E E E E E  E E E E E E E E   E E E E E E S S E
D|----------------|-----------------|----------------|-------------------||
A|----------------|-----------------|----------------|-------------------||
F|-----4-----4----|-4-----4-----4---|-----8-----8----|-8-----8-----8h9p8-||
C|----------------|-----------------|----------------|-------------------||
G|---5-----5-----5|-----5-----5-----|---9-----9-----9|-----9-----9-------||
D|-3-----3-----3--|---3-----3-----3/|-7-----7-----7--|---7-----7---------||
 |                |                 |                |                   ||
 | H       H      | H       H       | H       H      | H       H         ||
D|-7~-------------|-----------------|----------------|---------7~--------||
A|-8~------8~-----|-5~------3~------|-4~------5~-----|-7~------7~--------||
F|---------7~-----|-5~------4~------|-5~------8~-----|-8~----------------||
C|----------------|-----------------|----------------|-------------------||
G|----------------|-----------------|----------------|-------------------||
D|----------------|-----------------|----------------|-------------------||

BRIDGE 2
Guitar 3 Plays the INTRO (first 8 Bars) on top of:

Guitar 5
   T T T T T T T T T T T T T T T T T T T T T T T T T T T T T  T T T
D|---------15--------------19--------------15--------------19p15-----|
A|-------17--17----------17--17----------17--17----------17-----17---|
F|-----16------16------16------16------16------16------16---------16-|
C|---17----------17--17----------17--17----------17--17--------------| x2
G|-19--------------19--------------19--------------19----------------|
D|-------------------------------------------------------------------|
   T T T T T T T T T T T T T T T T T T T T T T T T T T T T T T T T
D|---------12--------------15--------------12--------------15--------|
A|-------13--13----------13--13----------13--13----------13--13------|
F|-----12------12------12------12------12------12------12------12----|
C|---14----------14--14----------14--14----------14--14----------14--| x2
G|-15--------------15--------------15--------------15----------------|
D|-------------------------------------------------------------------|
   T TTTTTTTT TTTTTTTT TTTTTTTT TTTTT  TTT
D|------7--------10--------7--------10p7----|
A|-----8-8------8--8------8-8------8----8---|
F|----7---7----7----7----7---7----7------7--|
C|---9-----9--9------9--9-----9--9----------| x2
G|-10-------10--------10-------10-----------|
D|------------------------------------------|
   T T T T T T T T T T T T T T T T T T T T T T T T T T T T T T T T
D|---------11--------------14--------------11--------------14------||
A|-------12--12----------12--12----------12--12----------12--12----||
F|-----11------11------11------11------11------11------11------11--||
C|---13----------13--13----------13--13----------13--13----------13|| x2
G|-14--------------14--------------14--------------14--------------||
D|-----------------------------------------------------------------||

DUEL SOLO
Guitar 3 plays the second half of verse 2 under:

  Guitar 4
   S  S  S  S  S  S  S  S  Q     S.  S.  S  E.   T  T  S S S  S  E  E   E  E
D|15-14-12-15-14-12-17-15-17b19--15--14--12|15--14h15p14--------------------|
A|-----------------------------------------|------------17----------------17|
F|-----------------------------------------|---------------16-14----14--16--|
C|-----------------------------------------|---------------------17---------|
G|-----------------------------------------|--------------------------------|
D|-----------------------------------------|--------------------------------|
 |Guitar 5                                 |                                |
 |S  S  S  S  S  S  S  S  Q      S.  S.  S |E.   T  T  S S S  S  E  E   E  E|
D|-----------------------------------------|--------------------------------|
A|17-15----17-15----19-17-19b20--17--15----|17--15h17p15--------------------|
F|------16-------16----------------------16|------------16----------------16|
C|-----------------------------------------|---------------17-16----16--17--|
G|-----------------------------------------|---------------------19---------|
D|-----------------------------------------|--------------------------------|
   Q    Q    Q    Q      Q    Q    Q    Q    S S S S S S S S S S S S S S S S
D|-15---17---19---20---|-22---20---19---15--|-------------------------------|
A|---------------------|--------------------|----------------4-7-4-7-4-7-4-7|
F|---------------------|--------------------|4-8-4-8-4-8-4-8----------------|
C|---------------------|--------------------|-------------------------------|
G|---------------------|--------------------|-------------------------------|
D|---------------------|--------------------|-------------------------------|
 | Q    Q    Q    Q    | Q    Q    Q    Q   |S S S S S S S S S S S S S S S S|
D|---------------------|--------------------|-------------------------------|
A|-17---19---20---22---|-24---22---20---17--|-------------------------------|
F|---------------------|--------------------|----------------4-8-4-8-4-8-4-8|
C|---------------------|--------------------|4-9-4-9-4-9-4-9----------------|
G|---------------------|--------------------|-------------------------------|
D|---------------------|--------------------|-------------------------------|
   S S S S S S S S S  S  S  S  S  S  S  S 
D|-----------------------------------------|
A|-----4-7-----4-8-------16-19-------16-20-|
F|-3-4-----3-4-----15-16-------15-16-------|
C|-----------------------------------------|
G|-----------------------------------------|
D|-----------------------------------------|
 | S S S S S S S S S  S  S  S  S  S  S  S |
D|-----------------------------------------|
A|-----------------------------------------|
F|-----4-8-----4-9-------16-20-------16-21-|
C|-3-4-----3-4-----15-16-------15-16-------|
G|-----------------------------------------|
D|-----------------------------------------|
   S   S S  S  S  S  S  S  S  S  S  S  S  S  S  S 
D|-------------------------------------------------|
A|-------16----------20----------20-19-17----------|
F|-16-17----17-16-17----17-16-17----------17-16-14-|
C|-------------------------------------------------|
G|-------------------------------------------------|
D|-------------------------------------------------|
 | S  S  S  S  S  S  S  S  S  S  S  S  S  S  S  S  |
D|-------------------------------------------------|
A|-------------------------------------------------|
F|-------16----------20----------20-17-16----------|
C|-17-19----19-17-19----19-17-19----------19-17-16-|
G|-------------------------------------------------|
D|-------------------------------------------------|

   S.  S.  S   S.  S.  S   S.  S.  S   S.  S.  S     W
D|-17----------------------------------------------|--------------------||
A|-----20--19--20--19--17--19--17------------------|--------------------||
F|---------------------------------20--17--20--16--|-17~----------------||
C|-------------------------------------------------|--------------------||
G|-------------------------------------------------|--------------------||
D|-------------------------------------------------|--------------------||
 | S.  S.  S   S.  S.  S   S.  S.  S  S.  S.   S     W
D|-------------------------------------------------|--------------------||
A|-19----------------------------------------------|--------------------||
F|-----21--20--21--20--17--20--17------------------|--------------------||
C|---------------------------------21--19--21--16--|-19~----------------||
G|-------------------------------------------------|--------------------||
D|-------------------------------------------------|--------------------||

Repeat 2nd Chorus.

************************************

| /   slide up
| \   slide down
| h   hammer-on
| p   pull-off
| ~   vibrato
| +   harmonic
| x   Mute note
| b   Bend
| pb  Pre-bend
| br  Bend release
| pbr Pre-bend release
| brb Bend release bend

************************************

Time Notation:
W  Whole Note
H  Half Note
Q  Quarter Note
E  Eight Note
S  Sixteenth Note
T  Thirty-Second Note
() Tied Beat
. Dotted Note
-3- Triplet Note


Lyrics:

VERSE 1
So this is the end, say goodbye, my friend
This is not like you, now your life is through
Every breath you took, every painted look
Your the one I need - God, come back to me.
Now I've lost my faith, locked in your embrace
What tomorrow brings will wash away these things
That will haunt me still, my dear trust will kill
Let the fire die, so that I can breathe

CHORUS
And now I've lost it all, my dear
Things I'll keep
Now you sleep
I won't give up, though you are gone
Remember me, in your dreams

VERSE 2
Seas will wash away this multitude of pain
Fading into black, find me through the cracks
I'll hold on to you, for all that we went through
Oh, why can't you see all that's left of me?
I can feel you here, laughing through the tears
Oh, the things we did, oh, the life we've lived
So I spread the ash, so that you will last
I will fall again, at the very end

CHORUS
And now I've lost it all, my dear
Things I'll keep
Now you sleep
I won't give up, though you are gone
Remember me, in your dreams
I won't be last in line
I'll march on
Carry on
I'll fight this 'til the end
I will not hold you ever again.

BRIDGE
Think of me
While a thousand angels guard you in your sleep
Remember me
When everything is coming to an end

CHORUS
And now I've lost it all, my dear
Things I'll keep
Now you sleep
I won't give up, though you are gone
Remember me, in your dreams
I won't be last in line
I'll march on
Carry on
I'll fight this 'til the end
I will not hold you ever again.
Добавлено: 13.09.2013
Другие материалы по этой песне:
  • Аккорды и текст

Страница создана 13.09.2013
http://primanota.ru/misc-unsigned-bands/lest-we-forget-embers-chords.htm
Привет, Гость.
Предлагаем пройти революционный курс по гитаре.
Подарок от PrimaNota.Ru, забирай!