PrimaNota.ru - самый крупный в мире бесплатный архив песенных текстов, аккордов, табулатур и нот


Misc Unsigned Bands - Leon Bruno - El Tatuaje De La Redencion - таба

Регистрация Запомнить меня
Войти через:  Facebook Google Twitter Vk Yandex Mail.ru

Misc Unsigned Bands - Leon Bruno - El Tatuaje De La Redencion - таба

Печатать
Просмотров: 60
Уроки эстрадного вокала в Санкт-Петербурге
riff1:

e-------------|---------|-----------------------|
B-------------|---------|-----------------------|
G-----4-------|-----4---|-------6---8-----6-----|
D---6---6---6-|---6---6-|-----8---8---8-----8---|
A---------6---|-7-------|-7s9-----------9-----9-|
E-4-----------|---------|-----------------------|


e-------------|---------|-----------------------|
B-------------|---------|-----------------------|
G---4---------|-----4---|-------6---8-----6-----|
D-----8-6---6-|---6---6-|-----8---8---8-----8---|
A---------6---|-7-------|-7s9-----------9-----9-|
E-4-----------|---------|-----------------------|

riff2:
e|---------|----------|----------|----------------|
B|---------|----------|----------|----------------|
G|---------|----------|----------|----------------|
D|-2-2---2-|4-4-4---4-|1-1-1---1-|6-6-6-6-4-4-4-4-|
A|-2-2---2-|4-4-4---4-|1-1-1---1-|6-6-6-6-4-4-4-4-|
E|-0-0---0-|2-2-2---2-|----------|4-4-4-4-2-2-2-2-|

riff3
e|-----------|------|-------|----------|-----------|------|----|------|
B|-----------|------|-------|----------|-----------|------|----|------|
G|-4s6-6-----|------|11-9-8-|8s9s8-6-4-|--4s6-6----|------|4-3-|------|
D|-4s6-6--5--|------|11-9-8-|8s9s8-6-4-|--4s6-6--5-|------|4-3-|-6----|
A|-2-2-2--5--|------|-9-7-6-|6s7s7-4-2-|--2s4-4--5-|------|2-1-|-6----|
E|--------3--|------|-------|----------|---------3-|------|----|-4----|



(riff1)
En aquellos d
Добавлено: 01.12.2013
Другие материалы по этой песне:
  • Аккорды и текст

Страница создана 01.12.2013
http://primanota.ru/misc-unsigned-bands/leon-bruno-el-tatuaje-de-la-redencion-chords.htm
Привет, Гость.
Предлагаем пройти революционный курс по гитаре.
Подарок от PrimaNota.Ru, забирай!