PrimaNota.ru - самый крупный в мире бесплатный архив песенных текстов, аккордов, табулатур и нот


Misc Unsigned Bands - Leigh Harrison - Cant Play Without A Guitar String - таба

Регистрация Запомнить меня
Войти через:  Facebook Google Twitter Vk Yandex Mail.ru

Misc Unsigned Bands - Leigh Harrison - Cant Play Without A Guitar String - таба

Печатать
Просмотров: 49
Tuning:eadgbe

Intro

e|---------------------------------------------------------------------------|
B|---------------------------------------------------------------------------|
G|---------------------------------------------------------------------------|
D|---------------------------------------------------------------------------|
A|--2-2-----2-2-------2-2-----2-2-------2-2-----2-2---/5-5-----5-5-----------|
E|------0-0---------------0-0---------------0-0------------3-3-----3-3-------|

e|----------------------|                             }
B|----------------------|                             }
G|----------------------|     Return to the begining  } x2 
D|----------------------|                             }
A|--/7-7-----7-7--------|     All of this intro is    }
E|-------5-5-----5-5----|              palm muted     }

Interlude


e|---------------------------------------|         } 
B|---------------------------------------|         } 
G|---------------------------------------|         } x4
D|-----2---2--------5--------7---7-------|         } 
A|---2------------5--------7-------------|         }       
E|-0------0----/3-------\5------5--------|         } 

e|----------------------------------------|        
B|----------------------------------------|
G|----------------------------------------|
D|---2-2-2-2-------5-5-3---7-7-7----------|
A|---2-2-2-2-------5-5-3---7-7-7----------|
E|---0-0-0-0---0-0-3-3-3---5-5-5----------|
       P P     P P   P P     P P
Добавлено: 14.02.2014
Другие материалы по этой песне:
  • Аккорды и текст

Страница создана 14.02.2014
http://primanota.ru/misc-unsigned-bands/leigh-harrison-cant-play-without-a-guitar-string-chords.htm
Привет, Гость.
Предлагаем пройти революционный курс по гитаре.
Подарок от PrimaNota.Ru, забирай!