PrimaNota.ru - самый крупный в мире бесплатный архив песенных текстов, аккордов, табулатур и нот


Misc Unsigned Bands - Las Divinas - Gasolina - таба

Регистрация Запомнить меня
Войти через:  Facebook Google Twitter Vk Yandex Mail.ru

Misc Unsigned Bands - Las Divinas - Gasolina - таба

Печатать
Просмотров: 53
Уроки эстрадного вокала в Санкт-Петербурге
-------------------------------------------10h12p10-|
-7/9-7----------10/12-10-8-----------10/12----------|
-------9--7-9-9------------7/9-7-9-9----------------|
----------------------------------------------------|
----------------------------------------------------|
----------------------------------------------------|

----------------------------------------------------|
-12-10-12-10-------------10/12-10-8-----7-8-7~------|
-------------12-11
Добавлено: 28.11.2013
Другие материалы по этой песне:
  • Аккорды и текст

Страница создана 28.11.2013
http://primanota.ru/misc-unsigned-bands/las-divinas-gasolina-chords.htm
Привет, Гость.
Предлагаем пройти революционный курс по гитаре.
Подарок от PrimaNota.Ru, забирай!