PrimaNota.ru - самый крупный в мире бесплатный архив песенных текстов, аккордов, табулатур и нот


Misc Unsigned Bands - Kyle Hicks - Please Smile - таба

Регистрация Запомнить меня
Войти через:  Facebook Google Twitter Vk Yandex Mail.ru

Misc Unsigned Bands - Kyle Hicks - Please Smile - таба

Печатать
Просмотров: 57
Уроки эстрадного вокала в Санкт-Петербурге
-------------------------------------------------------------------------------
                             Please Smile - Kyle Hicks
-------------------------------------------------------------------------------
Tabbed by: Kyle Hicks
Email: kylehicks01@hotmail.com

Tuning: Standard

*Verse Chord Progression = B Flat Minor, A Major, F Sharp Major, B Major
*Chorus Chord Progression=
B Flat Minor, M Major, E Major, F Sharp Major, B Major,

e|---------------------------------------------------------------------------|
B|---------5-----5-----5-----5-----------2-----2-3-2---2-----2---------------|
G|-----6-----6-----6-----6-----6-------2---2-------------2-----2-------------|
D|---6---6-----6-----6-----6-----6---2-------2-------------2-----2-----------|
A|-4-------------------------------0-----------------0-----------------------|
E|---------------------------------------------------------------------------|

e|---------------------------------------------------------------------------|
B|---------0-----2-----0-----2-----------4-----4-5-4-2-4---------------------|
G|-------5---5-----5-----5-----5-------4---4-----------4---------------------|
D|-----4-------4-----4-----4-----4---4-------4---------4---------------------|
A|---4-----------------------------2-------------------2---------------------|
E|-2-------------------------------------------------------------------------|

e|---------------------------------------------------------------------------|
B|---------5-----5-7-5---5-----5---------2-----2-3-2-----2-3-2-----2---------|
G|-----6-----6-------------6-----6------2--2---------2---------2-------------|
D|---6---6-----6-------------6-----6---2-----2---------2---------2-----------|
A|-4-------------------4-------------0---------------------------------------|
E|---------------------------------------------------------------------------|

e|---------------------------------------------------------------------------|
B|-----0-----2-----0---2---------4----4-5-4-2-4------------------------------|
G|-------5-----5---------5------4--4--4-4-4-2-4------------------------------|
D|---4-----4-----4---4-----4---4----4-------2-4------------------------------|
A|--4------------------------2-----------------------------------------------|
E|-2-------------------------------------------------------------------------|

e|---------------------------------------------------------------------------|
B|-----5------4-----2-----2-----4--------------------------------------------|
G|---6-6----4-4---2-2-----3-----4--------------------------------------------|
D|--6------4-----2------------4----------------------------------------------|
A|-4------2-----0-------4----2-----------------------------------------------|
E|---------------------2-----------------------------------------------------|
Добавлено: 08.10.2013
Другие материалы по этой песне:
  • Аккорды и текст

Страница создана 08.10.2013
http://primanota.ru/misc-unsigned-bands/kyle-hicks-please-smile-chords.htm
Привет, Гость.
Предлагаем пройти революционный курс по гитаре.
Подарок от PrimaNota.Ru, забирай!