PrimaNota.ru - самый крупный в мире бесплатный архив песенных текстов, аккордов, табулатур и нот


Misc Unsigned Bands - Kud Sign Em - Wanda De Panda - таба

Регистрация Запомнить меня
Войти через:  Facebook Google Twitter Vk Yandex Mail.ru

Misc Unsigned Bands - Kud Sign Em - Wanda De Panda - таба

Печатать
Просмотров: 37
-----------------------------------------------------------------------------
                     WANDA DE PANDA - Kud (Sign Em)
-----------------------------------------------------------------------------

! This is not my work !


e|--------------------------------------------------------------------------|
B|--------------------------------------------------------------------------|
G|-------8-----8---8--------4-----4---4-------------------------------------|
D|--/6-6---6-6---6----\2-2---2-2---2----------4-----4---4-------8---9---8---|
A|---------------------------------------/2-2---2-2---2-----6-6---6---6---6-|
E|--------------------------------------------------------------------------|


e|--------------------------------------------------------------------------|
B|--------------------------------------------------------------------------|
G|-------8-----8---8-------4---4---4----------------------------------------|
D|--/6-6---6-6---6----\2-2---2---2---2--------4------4---4------------------|
A|---------------------------------------/2-2---2-2---2---------------------|
E|--------------------------------------------------------------------------|
                Dit is het verhaal van wanda, mijn panda


e|--------------------------------------------------------------------------|
B|--------------------------------------------------------------------------|
G|---------------------------------------------8---9---8--------------------|
D|--/(8)-(8)-(8)-(8)-(8)-(8)-(8)-(8)------/6-6---6---6---6------------------|
A|--/-6---6---6---6---6---6---6---6-----------------------------------------|
E|--------------------------------------------------------------------------|
                        Hij is heel schattig...


e|--------------------------------------------------------------------------|
B|--------------------------------------------------------------------------|
G|------4-----4---4--------------------------------------------8-----8---8--|
D|-\2-2---2-2---2---------4-----4---4--------8-----8---8--/6-6---6-6---6----|
A|--------------------2-2---2-2---2-----/6-6---6-6---6----------------------|
E|--------------------------------------------------------------------------|


e|--------------------------------------------------------------------------|
B|--------------------------------------------------------------------------|
G|-------4-----4---4--------------------------------------------------------|
D|--\2-2---2-2---2--------(4)-(4)-(4)-(4)-(4)-(4)---------------------------|
A|-------------------\2-2--2---2---2---2---2---2----------------------------|
E|--------------------------------------------------------------------------|


e|--------------------------|
B|--------------------------|
G|--------------------------|
D|-/(8)-(8)-(8)-8-8-8-8-8---|
A|-/-6---6---6--6-6-6-6-6---|
E|--------------------------|


e|--------------------------------------------------------------------------|
B|--------------------------------------------------------------------------|
G|--8-8-8-8-8-8-8-8---4-4-4-4-4-4-4-4---------------------------------------|
D|--6-6-6-6-6-6-6-6---2-2-2-2-2-2-2-2---2-2-2-2-2-2-2-2---8-8-8-8-8-8-8-8---|
A|--------------------------------------4-4-4-4-4-4-4-4---6-6-6-6-6-6-6-6---|
E|--------------------------------------------------------------------------|            
                                                            x6

e|--------------------------------------------------------------------------|
B|--------------------------------------------------------------------------|
G|-------8-----8---8-------4-----4---4--------------------------------------|
D|--/6-6---6-6---6----\2-2---2-2---2---------4-----4---4-------8---9---8----|
A|--------------------------------------/2-2---2-2---2-----6-6---6---6---6--|
E|--------------------------------------------------------------------------|


e|--------------------------------------------------------------------------|
B|--------------------------------------------------------------------------|
G|-------8---9---8---------4-----4---4--------------------------------------|
D|--/6-6---6---6---6--\2-2---2-2---2---------4-----4---4-------8---9---8----|
A|--------------------------------------/2-2---2-2---2-----6-6---6---6---6--|
E|--------------------------------------------------------------------------|


e|--------------------------------------------------------------------------|
B|--------------------------------------------------------------------------|
G|-------8---9---8---------4-----4---4--------------------------------------|
D|--/6-6---6---6---6--\2-2---2-2---2---------4-----4---4-------8-----8---8--|
A|--------------------------------------/2-2---2-2---2-----6-6---6-6---6----|
E|--------------------------------------------------------------------------|


e|--------------------------------------------------------------------------|
B|--------------------------------------------------------------------------|
G|-------8-----8---8-------4-----4---4--------------------------------------|
D|--/6-6---6-6---6----\2-2---2-2---2--------(4)-(4)-(4)-(4)-(4)-(4)---------|
A|-------------------------------------/2-2--2---2---2---2---2---2----------|
E|--------------------------------------------------------------------------|


e|--------------------------|
B|--------------------------|
G|--------------------------|
D|-/(8)-(8)-(8)-8-8-8-8-8---|
A|-/-6---6---6--6-6-6-6-6---|
E|--------------------------|


e|--------------------------------------------------------------------------|
B|--------------------------------------------------------------------------|
G|--8-8-8-8-8-8-8-8---4-4-4-4-4-4-4-4---------------------------------------|
D|--6-6-6-6-6-6-6-6---2-2-2-2-2-2-2-2---2-2-2-2-2-2-2-2---8-8-8-8-8-8-8-8---|
A|--------------------------------------4-4-4-4-4-4-4-4---6-6-6-6-6-6-6-6---|
E|--------------------------------------------------------------------------|x6

e|--------------------------------------------------------------------------|
B|--------------------------------------------------------------------------|
G|-------8-----8---8-------4-----4---4--------------------------------------|
D|--/6-6---6-6---6----\2-2---2-2---2---------4-----4---4------8---8/9---8---|
A|--------------------------------------/2-2---2-2---2----6-6---6-----6-----|
E|--------------------------------------------------------------------------|


e|--------------------------------------||
B|--------------------------------------||
G|--------------------------------------||
D|--6/8\6--4/6\4------------------------||
A|----------------6\4/6--4\2/4--2/4-----||
E|--------------------------------------||
           ...my wanda in heaven


Dit is het verhaal van Wanda, mijn Panda:

Hij is heel schattig, met zijn snoet
en als we spelen dan is hij zoet
maar 
Добавлено: 05.11.2013
Другие материалы по этой песне:
  • Аккорды и текст

Страница создана 05.11.2013
http://primanota.ru/misc-unsigned-bands/kud-sign-em-wanda-de-panda-chords.htm
Привет, Гость.
Предлагаем пройти революционный курс по гитаре.
Подарок от PrimaNota.Ru, забирай!