PrimaNota.ru - самый крупный в мире бесплатный архив песенных текстов, аккордов, табулатур и нот


Misc Unsigned Bands - Krystle Warren - Sunday Comfort - аккорды и текст

Регистрация Запомнить меня
Войти через:  Facebook Google Twitter Vk Yandex Mail.ru

Misc Unsigned Bands - Krystle Warren - Sunday Comfort - аккорды и текст

Печатать
Просмотров: 39
Krystle Warren - Sunday Comfort
Misc Unsigned Bands
-------------------------------------------------------------------------------
                             Sunday Comfort - Krystle Warren
-------------------------------------------------------------------------------
Tabbed by:LukieWukie
Email:Lukie.Wukie@hotmail.com

Here's my tab of Krystle Warren's "Sunday Comfort",just picked up the album a 
few weeks ago and I'm loving it to bits,this song in particular.
Hope you like it!

Tuning:Standard

Note: I personally play this with just my fingers,I don't know if on the record
it's played with a pick or not,but I believe it sounds better.


INTRO: It's best in this part to just use your fingers to gently pluck the first few 
strings,except on the last chord,which is strummed gently with the thumb.

Intro Chords: B - G - F#
    
        B      G      F#
e|------7------3------2------------------------------------------------------|
B|------7------3------2------------------------------------------------------|
G|------8------4------3------------------------------------------------------|
D|------9------5------4------------------------------------------------------|
A|------9------5------4------------------------------------------------------|
E|------7------3------2------------------------------------------------------|


     These circumstances, these days of the week
     B
     
     I
Добавлено: 08.11.2013
Другие материалы по этой песне:
  • Аккорды и текст

Страница создана 08.11.2013
http://primanota.ru/misc-unsigned-bands/krystle-warren-sunday-comfort-chords.htm
Привет, Гость.
Предлагаем пройти революционный курс по гитаре.
Подарок от PrimaNota.Ru, забирай!