PrimaNota.ru - самый крупный в мире бесплатный архив песенных текстов, аккордов, табулатур и нот


Misc Unsigned Bands - Kriket Bot - Nk Mura Himna - таба

Регистрация Запомнить меня
Войти через:  Facebook Google Twitter Vk Yandex Mail.ru

Misc Unsigned Bands - Kriket Bot - Nk Mura Himna - таба

Печатать
Просмотров: 32
Kriket Bot - NK Mura Himna

tabbed by Matej Barac 


                       PM PM   PM PM   PM   PM PM   PM PM      
                     S S  S  S S  S  S S  S S  S  S S  S  S S  
E||-------|-------|-------------------------------------------|
B||-------|-------|-------------------------------------------|
G||-------|-------|-------------------------------------------|
D||-------|-------|--5-------5-------5----5-------5-------5-5-|
A||-------|-------|--3-3--3--3-3--3--3-3--3-3--3--3-3--3--3-3-|
E||-------|-------|-------------------------------------------|


    PM PM   PM PM   PM   PM PM   PM PM      
  S S  S  S S  S  S S  S S  S  S S  S  S S  
-------------------------------------------|
-------------------------------------------|
--5-------5-------5----5-------5-------5-5-|
--3-3--3--3-3--3--3-3--3-3--3--3-3--3--3-3-|
-------------------------------------------|
-------------------------------------------|


    PM PM   PM PM   PM   PM PM   PM PM      
  S S  S  S S  S  S S  S S  S  S S  S  S S  
-------------------------------------------|
-------------------------------------------|
-------------------------------------------|
-------------------------------------------|
--5-------5-------5----5-------5-------5-5-|
--3-3--3--3-3--3--3-3--3-3--3--3-3--3--3-3-|


    PM PM   PM PM   PM   PM PM   PM PM      
  S S  S  S S  S  S S  S S  S  S S  S  S S  
-------------------------------------------|
-------------------------------------------|
-------------------------------------------|
--5-------5-------5----5-------5-------5-5-|
--3-3--3--3-3--3--3-3--3-3--3--3-3--3--3-3-|
-------------------------------------------|


    PM PM   PM PM   PM   PM PM   PM PM      
  S S  S  S S  S  S S  S S  S  S S  S  S S  
-------------------------------------------|
-------------------------------------------|
-------------------------------------------|
--5-------5-------5----5-------5-------5-5-|
--3-3--3--3-3--3--3-3--3-3--3--3-3--3--3-3-|
-------------------------------------------|


    PM PM   PM PM   PM   PM PM   PM PM   PM  
  S S  S  S S  S  S S  S S  S  S S  S  S S   
--------------------------------------------|
--------------------------------------------|
--------------------------------------------|
--2-------2-------2----2-------2-------2----|
--0-0--0--0-0--0--0-0--0-0--0--0-0--0--0-0--|
--------------------------------------------|


    PM PM   PM PM   PM   PM PM            
  S S  S  S S  S  S S  S S  S  S E   E    
-----------------------------------------|
-----------------------------------------|
-----------------------------------------|
-----------------------------------------|
--3-------3-------3----5-------5----12\--|
--1-1--1--1-1--1--1-1--3-3--3--3---------|


    PM PM   PM PM   PM   PM PM   PM PM      
  S S  S  S S  S  S S  S S  S  S S  S  S S  
-------------------------------------------|
-------------------------------------------|
-------------------------------------------|
--5-------5-------5----5-------5----5--5-5-|
--3-3--3--3-3--3--3-3--3-3--3--3-3--3--3-3-|
-------------------------------------------|


    PM PM   PM PM   PM   PM PM   PM PM   PM  
  S S  S  S S  S  S S  S S  S  S S  S  S S   
--------------------------------------------|
--------------------------------------------|
--------------------------------------------|
--2-------2-------2----2-------2-------2----|
--0-0--0--0-0--0--0-0--0-0--0--0-0--0--0-0--|
--------------------------------------------|


    PM PM   PM PM   PM   PM PM   PM PM   PM  
  S S  S  S S  S  S S  S S  S  S S  S  S S   
--------------------------------------------|
--------------------------------------------|
--------------------------------------------|
--------------------------------------------|
--3-------3-------3----5-------5-------5-5--|
--1-1--1--1-1--1--1-1--3-3--3--3-3--3--3-3--|


    PM PM   PM PM   PM   PM PM         
  S S  S  S S  S  S S  S S  S  Q    S  
--------------------------------------|
--------------------------------------|
--------------------------------------|
--------------------------------------|
--3-------3-------5----5-------5----L-|
--1-1--1--1-1--1--3-3--3-3--3--3----L-|


    PM PM   PM PM   PM   PM PM   PM PM      
  S S  S  S S  S  S S  S S  S  S S  S  S S  
-------------------------------------------|
-------------------------------------------|
-------------------------------------------|
--5-------5-------5----5-------5-------5---|
--3-3--3--3-3--3--3-3--3-3--3--3-3--3--3-3-|
-------------------------------------------|


    PM PM   PM PM   PM   PM PM   PM PM      
  S S  S  S S  S  S S  S S  S  S S  S  S S  
-------------------------------------------|
-------------------------------------------|
--5-------5-------5----5-------5-------5---|
--3-3--3--3-3--3--3-3--3-3--3--3-3--3--3-3-|
-------------------------------------------|
-------------------------------------------|


    PM PM   PM PM   PM   PM PM   PM PM        PM PM   PM                      
  S S  S  S S  S  S S  S S  S  S S  S  S S    S  S  S S  S S S E  S S E  E.   
-------------------------------------------|---------------------------------|
-------------------------------------------|--------6----6-5-3-5--3---3--L---|
-------------------------------------------|--------5----5-5--------5--------|
-------------------------------------------|---------------------------------|
--5-------5-------5----5-------5-------5---|--3--3----3----------------------|
--3-3--3--3-3--3--3-3--3-3--3--3-3--3--3-3-|---------------------------------|


    PM PM   PM PM   PM   PM PM   PM PM      
  S S  S  S S  S  S S  S S  S  S S  S  S S  
-------------------------------------------|
-------------------------------------------|
-------------------------------------------|
--5-------5-------5----5-------5-------5---|
--3-3--3--3-3--3--3-3--3-3--3--3-3--3--3-3-|
-------------------------------------------|


    PM PM   PM PM   PM   PM PM   PM PM      
  S S  S  S S  S  S S  S S  S  S S  S  S S  
-------------------------------------------|
-------------------------------------------|
--5-------5-------5----5-------5-------5---|
--3-3--3--3-3--3--3-3--3-3--3--3-3--3--3-3-|
-------------------------------------------|
-------------------------------------------|


    PM PM   PM PM       PM PM   PM PM      
  S S  S  S S  S  S S S S  S  S S  S  S S  
------------------------------------------|
------------------------------------------|
------------------------------------------|
--5-------5-------5-5-5-------------------|
--3-3--3--3-3--3--3-3-3-------5-------5-5-|
------------------------3--3--3-3--3--3-3-|


    PM PM   PM PM       PM PM                                        
  S S  S  S S  S  S S S S  S  Q    S    S. E  E  T S S E   S Q    S  
-------------------------------------|------------------------------|
-------------------------------------|--3h-5--L--L-3-5-5b--3-5------|
-------------------------------------|------------------------------|
--5-------5-------5-5----------------|------------------------------|
--3-3--3--3-3--3--3-3-5-------5----L-|------------------------------|
----------------------3-3--3--3----L-|------------------------------|


  S S S S S S S S S S S E  S S S     H          E    S  S   S  S   S  S   
--8-7-5--------------------------|-----------------------------------12~-|
--------8-6-5-------5------5-6---|---------------------12s-13-13s-15-----|
--------------7-5-7---5-7--------|--10b---------Lb--12-------------------|
---------------------------------|---------------------------------------|
---------------------------------|---------------------------------------|
---------------------------------|---------------------------------------|


                                                   PM PM   PM PM      
   E.   E    E   Q     E   E.      T  Q    E  S. S S  S  S S  S  S S  
---L---13~--15-----------------|-------------------------------------|
----------------15----13--12---|--12s-1----L--L----------------------|
-------------------------------|-------------------------------------|
-------------------------------|-----------------5-------5-------5-5-|
-------------------------------|-----------------3-3--3--3-3--3--3-3-|
-------------------------------|-------------------------------------|


    PM PM PM PM PM PM PM PM PM PM PM PM PM                             
  S S  S  S  S  S  S  S  S  S  S  S  S  S  S S    Q    Q    Q    Q     
-----------------------------------------------|----------------------|
-----------------------------------------------|----------------------|
-----------------------------------------------|--5----L----7----L----|
--2----------------------------------------2-2-|--3----L----5----L----|
--0-0--0--0--0--0--0--0--0--0--0--0--0--0--0-0-|----------------------|
-----------------------------------------------|----------------------|


                           PM PM   PM PM   PM   PM PM   PM PM      
  Q    Q    Q    Q       S S  S  S S  S  S S  S S  S  S S  S  S S  
----------------------|-------------------------------------------|
----------------------|-------------------------------------------|
--5----L----7----L----|-------------------------------------------|
--3----L----5----L----|--5-------5-------5----5-------5-------5---|
----------------------|--3-3--3--3-3--3--3-3--3-3--3--3-3--3--3-3-|
----------------------|-------------------------------------------|


    PM PM   PM PM   PM   PM PM   PM PM      
  S S  S  S S  S  S S  S S  S  S S  S  S S  
-------------------------------------------|
-------------------------------------------|
--5-------5-------5----5-------5-------5---|
--3-3--3--3-3--3--3-3--3-3--3--3-3--3--3-3-|
-------------------------------------------|
-------------------------------------------|


    PM PM   PM PM   PM   PM PM   PM PM          PM   PM PM                      
  S S  S  S S  S  S S  S S  S  S S  S  S S    S S  S S  S  S S E  S S E.   E    
-------------------------------------------|-----------------------------------|
-------------------------------------------|-----------------------------------|
-------------------------------------------|-----------------------------------|
-------------------------------------------|--5----5-------7-5----0-2----------|
--5-------5-------5----5-------5-------5---|--3-3--3-3--3--5-3-5--2-0-5---12\--|
--3-3--3--3-3--3--3-3--3-3--3--3-3--3--3-3-|-------------------3------3--------|


    PM PM   PM PM   PM   PM PM   PM PM      
  S S  S  S S  S  S S  S S  S  S S  S  S S  
-------------------------------------------|
-------------------------------------------|
-------------------------------------------|
--5-------5-------5----5-------5-------5---|
--3-3--3--3-3--3--3-3--3-3--3--3-3--3--3-3-|
-------------------------------------------|


    PM PM   PM PM   PM   PM PM   PM PM      
  S S  S  S S  S  S S  S S  S  S S  S  S S  
-------------------------------------------|
-------------------------------------------|
--5-------5-------5----5-------5-------5---|
--3-3--3--3-3--3--3-3--3-3--3--3-3--3--3-3-|
-------------------------------------------|
-------------------------------------------|


    PM PM   PM PM   PM   PM PM   PM PM   PM  
  S S  S  S S  S  S S  S S  S  S S  S  S S   
--------------------------------------------|
--------------------------------------------|
--------------------------------------------|
--------------------------------------------|
--5-------5-------5----3-------3-------3----|
--3-3--3--3-3--3--3-3--1-1--1--1-1--1--1-1--|


    PM   PM PM                          PM PM   PM PM   PM   PM PM   PM PM      
  S S  S S  S  S S E  S S E.   E      S S  S  S S  S  S S  S S  S  S S  S  S S  
-----------------------------------|-------------------------------------------|
-----------------------------------|-------------------------------------------|
-----------------------------------|-------------------------------------------|
--5----5-------7-5----0-2----------|--5-------5-------5----5-------5-------5---|
--3-3--3-3--3--5-3-5--2-0-5---12\--|--3-3--3--3-3--3--3-3--3-3--3--3-3--3--3-3-|
-------------------3------3--------|-------------------------------------------|


    PM PM   PM PM   PM   PM PM   PM PM      
  S S  S  S S  S  S S  S S  S  S S  S  S S  
-------------------------------------------|
-------------------------------------------|
--5-------5-------5----5-------5-------5---|
--3-3--3--3-3--3--3-3--3-3--3--3-3--3--3-3-|
-------------------------------------------|
-------------------------------------------|


    PM PM   PM PM   PM   PM PM   PM PM      
  S S  S  S S  S  S S  S S  S  S S  S  S S  
-------------------------------------------|
-------------------------------------------|
-------------------------------------------|
-------------------------------------------|
--5-------5-------5----5-------5-------5---|
--3-3--3--3-3--3--3-3--3-3--3--3-3--3--3-3-|


  PM PM   PM     PM   PM PM PM PM         
  S  S  S S  S S S  S S  S  S  S   Q      
-----------------------------------------|
-----------------------------------------|
--------5----5---------------------------|
--------3----3-5-------------------------|
--3--3----3----3-3--5-5--5--5--5--12\----|
--------------------3-3--3--3--3---------|


    PM PM   PM PM   PM   PM PM   PM PM      
  S S  S  S S  S  S S  S S  S  S S  S  S S  
-------------------------------------------|
-------------------------------------------|
-------------------------------------------|
--5-------5-------5----5-------5-------5---|
--3-3--3--3-3--3--3-3--3-3--3--3-3--3--3-3-|
-------------------------------------------|


    PM PM   PM PM   PM   PM PM   PM PM      
  S S  S  S S  S  S S  S S  S  S S  S  S S  
-------------------------------------------|
-------------------------------------------|
--5-------5-------5----5-------5-------5---|
--3-3--3--3-3--3--3-3--3-3--3--3-3--3--3-3-|
-------------------------------------------|
-------------------------------------------|


    PM PM   PM PM   PM   PM PM   PM PM      
  S S  S  S S  S  S S  S S  S  S S  S  S S  
-------------------------------------------|
-------------------------------------------|
-------------------------------------------|
-------------------------------------------|
--5-------5-------5----3-------3-------3---|
--3-3--3--3-3--3--3-3--1-1--1--1-1--1--1-1-|


    PM PM   PM PM   PM                                    
  S S  S  S S  S  S S  S S S Q    S    W                  
------------------------------------|-------------------||
------------------------------------|-------------------||
-----------------------5------------|-------------------||
--5-------5-------5----3-5---5----L-|--L----------------||
--3-3--3--3-3--3--3-3----3-5-3----L-|--L----------------||
---------------------------3--------|-------------------||




Duration Legend
---------------
W - whole
H - half
Q - quarter
E - 8th
S - 16th
T - 32nd
X - 64th
. - note dotted
|-n-|  - n-tuplets


Tablature Legend
----------------
L - tied note
x - dead note
g - grace note
(n) - ghost note
> - accentuded note
NH - natural harmonic
AH - artificial harmonic
TH - tapped harmonic
SH - semi harmonic
PH - pitch harmonic
h - hammer on
p - pull off
b - bend
br - bendRelease
pb - preBend
pbr - preBendRelease
brb - bendReleaseBend
\n/ - tremolo bar dip
\n - tremolo bar dive
-/n - tremolo bar Release up
/n\ - tremolo bar inverted dip
/n - tremolo bar return
-\n - tremolo bar Release down
S - shift slide
s - legato slide
/ -  slide into from below or out of upwards
\ -  slide into from above or out of downwards
~ - vibrato
W - wide vibrato
tr - trill
TP - tremolo picking
T - tapping
S - slap
P - pop
< - fade in
^ - brush up
v - brush down
Добавлено: 10.10.2013
Другие материалы по этой песне:
  • Аккорды и текст

Страница создана 10.10.2013
http://primanota.ru/misc-unsigned-bands/kriket-bot-nk-mura-himna-chords.htm
Привет, Гость.
Предлагаем пройти революционный курс по гитаре.
Подарок от PrimaNota.Ru, забирай!