PrimaNota.ru - самый крупный в мире бесплатный архив песенных текстов, аккордов, табулатур и нот


Misc Unsigned Bands - Kok Friends - Bleib Bei Mir - аккорды и текст

Регистрация Запомнить меня
Войти через:  Facebook Google Twitter Vk Yandex Mail.ru

Misc Unsigned Bands - Kok Friends - Bleib Bei Mir - аккорды и текст

Печатать
Просмотров: 108
Kok Friends - Bleib Bei Mir
Misc Unsigned Bands
kok & friends - Bleib bei mir
Album - Bring back the Blues



D       xx0232
A       x02220
Em      022000
G       320003



Intro

Guitar 1
D / A / Em / G 2x

Guitar 2

e|--------------------|
B|--------------------|
G|-9-9-9-9-11-9-------| 2x
D|--------------9-12--|
A|--------------------|
E|--------------------|


Verse 1

D
Ich gehe nach draußen,
               A
das Wetter ist schön,
               Em                               G
ich darf viele Menschen und Tier in meinem Park sehen.
D
Ich gehe nach draußen,
                A
dass Wetter ist schön,
                        Em
doch da kommen dunkle Wolken,
                   G
wo soll ich jetzt hingehen?


Chorus

Guitar 1
A / D / Em / G

Guitar 2 is playing this during the chorus

e|-2-2-3-5--3-2--------------------3-3-3-2-----5-5-5-5-3-3-|
B|------------------5-5-3-5--5-3-5---------5-3-------------|
G|---------------------------------------------------------| 2x
D|---------------------------------------------------------|
A|---------------------------------------------------------|
E|---------------------------------------------------------|


Verse 2

D
Wozu gibt es Regenschirme,
                 A
wenn man sie nie öffnet?
                    Em
Versteckst du deine Tränen,
                G
damit sie jeder sieht?
               D
Die verlaufene Schminke,
            A
spricht eine Sprache,
       Em              G
die kulturweit jeder versteht.


Harmonic Solo

Guitar 1
D / A / Em / G

Guitar 2
e|--------------------------|
B|--------------------12-9--|
G|--712-12-12-11-9----------|
D|-----------------12-------|
A|--------------------------|
E|--------------------------|
Добавлено: 21.06.2015
Другие материалы по этой песне:
  • Аккорды и текст

Страница создана 21.06.2015
http://primanota.ru/misc-unsigned-bands/kok-friends-bleib-bei-mir-chords.htm
Привет, Гость.
Предлагаем пройти революционный курс по гитаре.
Подарок от PrimaNota.Ru, забирай!