PrimaNota.ru - самый крупный в мире бесплатный архив песенных текстов, аккордов, табулатур и нот


Misc Unsigned Bands - Just Surrender - Tell Me Everything - таба

Регистрация Запомнить меня
Войти через:  Facebook Google Twitter Vk Yandex Mail.ru

Misc Unsigned Bands - Just Surrender - Tell Me Everything - таба

Печатать
Просмотров: 54
Song: Tell Me Everything
Artist: Just Surrender
Tuning: Drop D(D,A,D,G,B,E)
Tabbed: October 12, 2005

Okay, so I just got into this band like 3 weeks ago and decided to tab this song cause
it was so awesome. It took me a while, so if you like it, rate it high. I did this whole
thing by myself, since I don't think there is any other tab for this song on the
internet. Not that I've seen anyway. Anyway, here it is. 

Guitar 1 (Rhythm) 
Guitar 2 (Lead) 

Okay, it's gonna work like this. I'll do the part for guitar 1 first, then the part for
guitar 2. If I did them both at once, it would be really confusing. Trust me.

#--------#
|GUITAR 1|
#--------#

Intro is guitar 2 only.

Verse
E----------------------------------------------------|
B----------------------------------------------------|
G----------------------------------------------------|
D-66666666666666666666666666666666-8-----------------|
A-66666666666666666666666666666666-8-----------------|
D-66666666666666666666666666666666-8-----------------|


verse cont.
E----------------------------------------------------|
B----------------------------------------------------|
G----------------------------------------------------|
D-10-------------------------------------------------|
A-10-(x32)-------------------------------------------|
D-10-------------------------------------------------|



verse cont. 2nd
E----------------------------------------------------|
B----------------------------------------------------|
G----------------------------------------------------|
D-66666666666666666666666666666666-8-----------------|
A-66666666666666666666666666666666-8-----------------|
D-66666666666666666666666666666666-8-----------------|



verse cont. 3rd
E----------------------------------------------------|
B----------------------------------------------------|
G----------------------------------------------------|
D-10-------8888888888888888--------------------------|
A-10-(x16)-8888888888888888--------------------------|
D-10-------8888888888888888--------------------------|
pm         ................



Fill
E----------------------------------------------------|
B----------------------------------------------------|
G----------------------------------------------------|
D-1111111111111--------------------------------------|
A-1111111111111--------------------------------------|
D-1111111111111--------------------------------------|



Repeat the whole verse again, minus the verse cont. 3rd and fill.

Pre-Chorus(this would take the place of the verse cont. 3rd)
E----------------------------------------------------|
B----------------------------------------------------|
G----------------------------------------------------|
D-10-------888888888---------------------------------|
A-10-(x16)-888888888---------------------------------|
D-10-------888888888---------------------------------|
pm         ........

Chorus
E----------------------------------------------------|x3
B----------------------------------------------------|
G----------------------------------------------------|
D-666-66-6-888-88-8-101010-1010-10-101010-1010-10----|
A-666-66-6-888-88-8-101010-1010-10-101010-1010-10----|
D-666-66-6-888-88-8-101010-1010-10-101010-1010-10----|

Post-Chorus
E----------------------------------------------------|
B----------------------------------------------------|
G----------------------------------------------------|
D-6~----8~---111-11-1--11-11-------------------------|
A-6~----8~---111-11-1--11-11-------------------------|
D-6~----8~---111-11-1--11-11-------------------------|
                           

2nd Verse
E----------------------------------------------------|
B----------------------------------------------------|
G----------------------------------------------------|
D-10~--------\6~-----------8-------------------------|
A-10~--------\6~-----------8-------------------------|
D-10~--------\6~-----------8-------------------------|

2nd Verse cont.
E----------------------------------------------------|
B----------------------------------------------------|
G----------------------------------------------------|
D--10------6666666666666666-888888888----------------|
A--10(x32)-6666666666666666-888888888----------------|
D--10------6666666666666666-888888888----------------|
pm ..      ................ ........

Play the Chorus here again.

2nd Post Chorus
E----------------------------------------------------|
B----------------------------------------------------|
G----------------------------------------------------|
D-6~-----8~-----111-11-1--11-11-1--11-11-1--11-11----|
A-6~-----8~-----111-11-1--11-11-1--11-11-1--11-11----|
D-6~-----8~-----111-11-1--11-11-1--11-11-1--11-11----|

Bridge Pt. 1
E----------------------------------------------------|x2
B----------------------------------------------------|
G----------------------------------------------------|
D-10~-----8~-----6~--6~------------------------------|
A-10~-----8~-----6~--6~------------------------------|
D-10~-----8~-----6~--6~------------------------------|

Bridge Pt. 2
E----------------------------------------------------|
B----------------------------------------------------|
G----------------------------------------------------|
D--6------8------10------8---------------------------|
A--6(x16)-8(x16)-10(x16)-8(x16)----------------------|
D--6------8------10------8---------------------------|
pm ...... ...... ....... ......

Final Chorus
E----------------------------------------------------|x7
B----------------------------------------------------|
G----------------------------------------------------|
D-666-66-6-888-88-8-101010-1010-10-101010-1010-10----|
A-666-66-6-888-88-8-101010-1010-10-101010-1010-10----|
D-666-66-6-888-88-8-101010-1010-10-101010-1010-10----|

Outro
E----------------------------------------------------|
B----------------------------------------------------|
G----------------------------------------------------|
D-6~-----8~------1~----------------------------------|
A-6~-----8~------1~--Let Ring------------------------|
D-6~-----8~------1~----------------------------------|


Okay, that's the end of the song for guitar 1. 

#--------#
|GUITAR 2|
#--------#

Intro (Light Distortion)
E----------------------------------------------------|
B----------------------------------------------------|
G--676--676--676--676--676--676--676--676------------|
D-9----9----9----9----9----9----9----9---------------|
A----------------------------------------------------|
D----------------------------------------------------| 

Verse (Heavily Distorted)                            
E----------------------------------------------------|
B----------------------------------------------------|
G--676--676--676--676--676--676--676--676------------|
D-9----9----9----9----9----9----9----9---------------|
A----------------------------------------------------|
D----------------------------------------------------| 

verse cont.
E----------------------------------------------------|x2
B---------------10p0-12p0-10p0-----------------------|
G-8p0-10p0-12p0----------------12p0-8p0--------------|
D----------------------------------------------------|
A----------------------------------------------------|
D----------------------------------------------------|  

verse cont. 2nd
E----------------------------------------------------|
B----------------------------------------------------|
G--676--676--676--676--676--676--676--676------------|
D-9----9----9----9----9----9----9----9---------------|
A----------------------------------------------------|
D----------------------------------------------------| 

verse cont. 3rd
E----------------------------------------------------|x2
B---------------10p0-12p0-10p0-----------------------|
G-8p0-10p0-12p0----------------12p0-10p0-------------|
D----------------------------------------------------|
A----------------------------------------------------|
D----------------------------------------------------|

Fill
E----------------------------------------------------|
B----------------------------------------------------|
G-888777--88778--------------------------------------|
D-------88----7--------------------------------------|
A----------------------------------------------------|
D----------------------------------------------------| 

Now, play the verse again, minus verse cont. 3rd and Fill.

Pre-Chorus(replaces verse cont. 3rd)
E---------------------------------------------------------------|
B---------------10p0-12p0-10p0------------------------1010-13---|
G-8p0-10p0-12p0----------------12p0-10p0-88-1010-1212-----------|
D---------------------------------------------------------------|
A---------------------------------------------------------------|
D---------------------------------------------------------------|

Chorus
E----------------------------------------------------|
B----------------------------------------------------|
G----------------------------------87-7-87-7---------|
D-666-66-6-888-88-8-101010-1010-10---8----8----------|
A-666-66-6-888-88-8-101010-1010-10-------------------|
D-666-66-6-888-88-8-101010-1010-10-------------------|

E----------------------------------------------------|
B----------------------------------------------------|
G-------------------5~-7~-5~-7~----------------------|
D-666-66-6-888-88-8-x--x--x--x-----------------------|
A-666-66-6-888-88-8-3~-5~-3~-5~----------------------|
D-666-66-6-888-88-8----------------------------------|

E----------------------------------------------------|
B----------------------------------------------------|
G----------------------------------87-7-87-7---------|
D-666-66-6-888-88-8-101010-1010-10---8----8----------|
A-666-66-6-888-88-8-101010-1010-10-------------------|
D-666-66-6-888-88-8-101010-1010-10-------------------|

Post-Chorus
E----------------------------------------------------|
B----------------------------------------------------|
G----------------------------------------------------|
D-6~----8~---111-11-1--11-11-------------------------|
A-6~----8~---111-11-1--11-11-------------------------|
D-6~----8~---111-11-1--11-11-------------------------|
                           

2nd Verse
E----------------------------------------------------|
B----------------------------------------------------|
G----------------------------------------------------|
D-10~--------\6~-----------8-------------------------|
A-10~--------\6~-----------8-------------------------|
D-10~--------\6~-----------8-------------------------|

2nd Verse cont.       x3      4th time play this
E-----------------------|----------------------------|
B-----------------------|----------------------------|
G--87--87--87--87--87-7-|-87--87--8-7----------------|
D----8---8---8---8---8--|---8---8--8-----------------|
A-----------------------|----------------------------|
D-----------------------|----------------------------| 
pm ... ... ... ... ....   ... ... .. 

Chorus x1

2nd Post-Chorus
E----------------------------------------------------|
B----------------------------------------------------|
G----------------------------------------------------|
D-6~----8~---111-11-1--11-11--11-11-1--11-11---------|
A-6~----8~---111-11-1--11-11--11-11-1--11-11---------|
D-6~----8~---111-11-1--11-11--11-11-1--11-11---------|

Bridge Pt. 1
E----------------------------------------------------|x2
B----------------------------------------------------|
G-----8-7-8----8-7-8-----8---------------------------|
D-10~-------8~-------6~-----8------------------------|
A-10~-------8~-------6~------------------------------|
D-10~-------8~-------6~------------------------------|
                           
Bridge Pt. 2         x3      Play this 4th time
E----------------------|-----------------------------|
B----------------------|-----------------------------|
G--87-7-87-7-87-7-87-7-|--87-7-87-7-8----------------|
D----8----8----8----8--|----8----8-------------------|
A----------------------|-----------------------------|
D----------------------|-----------------------------|


Final Chorus
E----------------------------------------------------|
B----------------------------------------------------|
G----------------------------------87-7-87-7---------|
D-666-66-6-888-88-8-101010-1010-10---8----8----------|
A-666-66-6-888-88-8-101010-1010-10-------------------|
D-666-66-6-888-88-8-101010-1010-10-------------------|

E----------------------------------------------------|
B----------------------------------------------------|
G-------------------5--7--5--7-----------------------|
D-666-66-6-888-88-8-x--x--x--x-----------------------|
A-666-66-6-888-88-8-3--5--3--5-----------------------|
D-666-66-6-888-88-8----------------------------------|

E-1110---1110---1110---1110---1110--10---------------|Play this part of
B-----10-----10-----10-----10-----10-----------------|the final chorus until
G----------------------------------------------------|the outro.
D----------------------------------------------------|
A----------------------------------------------------|
D----------------------------------------------------|

Outro
E-1110---1110---1110---1110---1110-------------------|
B-----10-----10-----10-----10-----10\5-4~-Let Ring---|
G----------------------------------------------------|
D----------------------------------------------------|
A----------------------------------------------------|
D----------------------------------------------------|

So that's the whole song, both guitars, totally complete. This has been my hardest
tab to make yet and the hardest to figure out. Definately listen to the song for the
timing. I tried to put it in but it doesn't work as well as just listening for it.
If you have any corrections, suggestions,
hate mail, comments, either leave one for me or contact me.

E-mail: SaintJimmy10@yahoo.com

Thanks. Have fun. Please rate.
Добавлено: 25.08.2013
Другие материалы по этой песне:
  • Аккорды и текст

Страница создана 25.08.2013
http://primanota.ru/misc-unsigned-bands/just-surrender-tell-me-everything-chords.htm
Привет, Гость.
Предлагаем пройти революционный курс по гитаре.
Подарок от PrimaNota.Ru, забирай!