PrimaNota.ru - самый крупный в мире бесплатный архив песенных текстов, аккордов, табулатур и нот


Misc Unsigned Bands - Juan Son - I Want You To Want Me - таба, видео

Регистрация Запомнить меня
Войти через:  Facebook Google Twitter Vk Yandex Mail.ru

Misc Unsigned Bands - Juan Son - I Want You To Want Me - таба, видео

Печатать
Просмотров: 52
THIS IS MY VERY FIRST TAB, SO ITS NOT 100% ACCURATE
BUT I HOPE YOU LIKE IT. ANY COMMENT TO : LOKO4YA_ILA@HOTMAIL.COM


INTRO

|--------------------------------------------|
|--------------------------------------------|
|--------------------------------------------|
|-7-7-7-7-7--5-5-5-5--12-12-12-12--7-7-7-7---|
|-7-7-7-7-7--5-5-5-5--12-12-12-12--7-7-7-7---|
|-5-5-5-5-5--3-3-3-3--10-10-10-10--5-5-5-5---|

RIFF 1


|---------------------------------------------------------------|
|---------------------------------------------------------------|
|---------------------------------------------------------------|
|-7-7-7-7-7--6-6-6-6--4-4-4-4--12-12-12-12--14-14-14--7-7-7-7---|
|-7-7-7-7-7--6-6-6-6--4-4-4-4--12-12-12-12--14-14-14--7-7-7-7---|
|-5-5-5-5-5--4-4-4-4--2-2-2-2--10-10-10-10--12-12-12--5-5-5-5---|

  i want you          i need   i'd love you           i'm beggin
  to want me          you to   to love me             you to beg
                      need me                         me

|-------------------------------------------|
|-------------------------------------------|
|-------------------------------------------|
|-4-4-4-4--12-12-12-12--14-14-14--7-7-7-7---|
|-4-4-4-4--12-12-12-12--14-14-14--7-7-7-7---|
|-2-2-2-2--10-10-10-10--12-12-12--5-5-5-5---|

  i want   i need you             i
Добавлено: 17.08.2013
Другие материалы по этой песне:
  • Аккорды и текст

Страница создана 17.08.2013
http://primanota.ru/misc-unsigned-bands/juan-son-i-want-you-to-want-me-chords.htm
Привет, Гость.
Предлагаем пройти революционный курс по гитаре.
Подарок от PrimaNota.Ru, забирай!