PrimaNota.ru - самый крупный в мире бесплатный архив песенных текстов, аккордов, табулатур и нот


Misc Unsigned Bands - Joshua Lemings - One Last Song - таба

Регистрация Запомнить меня
Войти через:  Facebook Google Twitter Vk Yandex Mail.ru

Misc Unsigned Bands - Joshua Lemings - One Last Song - таба

Печатать
Просмотров: 69
Уроки эстрадного вокала в Санкт-Петербурге
RESOURCE            http://www.youtube.com/watch?v=_cwvyEODz8o&feature=related

|||||||||||||||||||||||||||||||||||||||||||||||||||||||||||||||||||||||||||||
Intro
(0:03)
Guitar 1   +++++++++++X2++++++++++++++++ (Repeat)
(Finger picking)

e-----------------------------------------------------------------------|
B-----------------------------------------------------------------------|
G--10-10-10-10-10-10---12-10-7------------------------------------------|
D-8--8--8--8--8--8--8----------8----8---12----12---12---10-8-10-12-10-8-|
A--------------------------------10---10---10----10------0---0-----0--0-|
E-----------------------------------------------------------------------|

Guitar 2    ++++++++++X2++++++++++++++++++ (Repeat)
(Background)
e-----------------------------------------------------------------------|
B-----------------------------------------------------------------------|
G-----------------------------------------------------------------------|
D-8~-------12~------------------12-8~--------------------10~------------|
A-8~-------12~------------------12-8~--------------------8-~------------|
E-----------------------------------------------------------------------|
|||||||||||||||||||||||||||||||||||||||||||||||||||||||||||||||||||||||||||||

|||||||||||||||||||||||||||||||||||||||||||||||||||||||||||||||||||||||||||||
VERSE 1
Line 1,2
(0:20)
Guitar 1
e------------------------------------------------------------------------|
B------------------------------------------------------------------------|
G----------------------------------------------------------------3~------|(X2)
D------------------------------------------------------------------------|
A------------------------------------------------------------------------|
E------------------------------------------------------------------------|

Guitar 2

e-------------------------------------------------------------------------|
B-------------------------------------------------------------------------|
G-------------------------------------------------------------------------|
D-8~--------12~-------------------8~---------------------10~--------------|(X2)
A-8~--------12~-------------------8~---------------------8~---------------|
E-------------------------------------------------------------------------|

-Line 1- The ship was sinking;we were drinking, singing one last song,
Casting our gold into the ocean.

-Line 2- You grabbed a bucket, started screaming, "Come on, come on",
Trying to slow the downward motion.
|||||||||||||||||||||||||||||||||||||||||||||||||||||||||||||||||||||||||||||

Verse 1
Line 3
(0:43)                  p=pull-off
Guitar 1

e------------------------------------------------------------------------|
B------------------------------------------------------------------------|
G-10-10-10-10-10-10-10-10-10-10-10---------------------------------------|
D---8--8--8--8--8--8--8--8--8--8--8--10p9p8-10-12-10-8-------------------|
A------------------------------------------------------------------------|
E------------------------------------------------------------------------|


Guitar 2

e------------------------------------------------------------------------|
B------------------------------------------------------------------------|
G------------------------------------------------------------------------|
D-8~--------12~-------------------8~---------------------10~-------------|
A-8~--------12~-------------------8~---------------------8~--------------|
E------------------------------------------------------------------------|

-Line 3- Back in the kingdom, we were kings and queens and Oh, so strong
That God himself could not contain us.

|||||||||||||||||||||||||||||||||||||||||||||||||||||||||||||||||||||||||||||


Verse
Line 4
(0:53)

Guitar 1

e----------------------------------------------------------------|
B----------------------------------------------------------------|
G-10-10-10-10-10-10-10-10-10-10-10-----------8-8-10-8-10-12-10-8-|
D---8--8--8--8--8--8--8--8--8--8--8----------8-------------------|
A----------------------------------------------------------------|
E----------------------------------------------------------------|

Guitar 2

e----------------------------------------------------------------|
B----------------------------------------------------------------|
G----------------------------------------------------------------|
D----------------------------------------------------------------|
A----------------------------------------------------------------|
E--6~----------10~----------------------13~-------------------6~-|

-Line 4- We never thought we'd be the shorter half of sword and gun.
Now god himself could never save us.

|||||||||||||||||||||||||||||||||||||||||||||||||||||||||||||||||||||||||||||
Добавлено: 09.02.2014
Другие материалы по этой песне:
  • Аккорды и текст

Страница создана 09.02.2014
http://primanota.ru/misc-unsigned-bands/joshua-lemings-one-last-song-chords.htm
Привет, Гость.
Предлагаем пройти революционный курс по гитаре.
Подарок от PrimaNota.Ru, забирай!