PrimaNota.ru - самый крупный в мире бесплатный архив песенных текстов, аккордов, табулатур и нот


Misc Unsigned Bands - Jonnyh92 - Boyfriend Screamo - таба

Регистрация Запомнить меня
Войти через:  Facebook Google Twitter Vk Yandex Mail.ru

Misc Unsigned Bands - Jonnyh92 - Boyfriend Screamo - таба

Печатать
Просмотров: 100
------------------------------------------------------------------------------------
                           JONNYH92 - Boyfriend ("Screamo") Cover
------------------------------------------------------------------------------------

I was asked to make a tab for this Youtube video:
http://youtu.be/zFZdh3BXweA
...so I did.



Drop C Tuning
----------------------|
----------------------|


Intro

Guitar 1

D|------------------------------------------------------------------------------------|
A|------------------------------------------------------------------------------------|
F|------------------------------------------------------------------------------------|
C|-0~~~~~~1~~~~~p/~~~\~0~~~~~~1~~~~~p/~~~\~~------------------------------------------|
G|------------------------------------------------------------------------------------|
C|------------------------------------------------------------------------------------|


Guitar 2

D|-------------------------------------------|
A|-------------------------------------------|
F|-------------------------------------------|
C|---------------------12/\-(a lot of 12's)--|
G|-------------------------------------------|
C|-------------------------------------------|



Verse Part 1

Guitar 1

D|------------------------------------------------------------------------------------|
A|------------------------------------------------------------------------------------|
F|------------------------------------------------------------------------------------|
C|--0--0----0----0--0--0------0-------0----0--0--0---0-0-0-0---0-------0--0--0--0-----|
G|--0--0----0----0--0--0------0-------0----0--0--0---0-0-0-0---0-------0--0--0--0-----|
C|--0--0----0----0--0--0------0-------0----0--0--0---0-0-0-0---0-------0--0--0--0-----|

Guitar 2

D|------------------------------------------------------------------------------------|
A|------------------------------------------------------------------------------------|
F|------------------------------------------------------------------------------------|
C|-12-12---12---12-12-12-----12------12---12-12-12--12121212--12------12-12-12-12-----|
G|------------------------------------------------------------------------------------|
C|------------------------------------------------------------------------------------|

Verse Part 2

Both Guitars

D|-------------------------------- ---|
A|--------------------------------o---|
F|-------------------------------- ---|
C|-0~~~---1-0-0-0--------0--0---- ----|
G|-0~~~---1-0-0-0--------0--0----o----|
C|-0~~~---1-0-0-0--------0--0---- ----|


Pre-Chorus 1

Guitar 1

D|------------------------------------------------------------------------|
A|------------------------------------------------------------------------|
F|------7-7-7-7---------5-5-5-5-------3-3-3-3-----------9-----------------|
C|-0-0-----------10-10-----------8-8----------8-8---------10--------------|
G|-0-0--5-5-5-5--10-10--3-3-3-3--8-8--1-1-1-1-8-8--8-10-------------------|
C|-0-0-----------10-10-----------8-8----------8-8-------------------------|

D|----------------------------------------------------------------------|
A|----------------------------------------------------------------------|
F|------7-7-7-7--------5-5-5-5------3-3-3-3-----------------------------|
C|-0-0----------10-10-----------8-8---------8---8-----------------------|
G|-0-0--5-5-5-5-10-10--3-3-3-3--8-8-1-1-1-1-8---8-----------------------|
C|-0-0----------10-10-----------8-8---------8---8-----------------------|



Guitar 2

D|----------------------------------------------------------------------------|
A|----------------------------------------------------------------------------|
F|-------7-5------------------------------------------5----------------5------|
C|-----5-----8-7--------------------------0-0-0-0-------3--0-0-0-0-------3----|
G|-5-5-----------8-8-8-8-8--10-10-10-10---0-0-0-0-5-8------0-0-0-0-5-8--------|
C|----------------------------------------0-0-0-0----------0-0-0-0------------|

D|----------------------------------------------------------------|
A|----------------------------------------------------------------|
F|-------7-5-------------------------------------------5----------|
C|-----5-----8-7--------------------------0-0-0-0-------3--8--8---|
G|-5-5-----------8-8-8-8-8--10-10-10-10---0-0-0-0-5-8------8--8---|
C|----------------------------------------0-0-0-0----------8--8---|



Chorus

Both Guitars

D|-------------------------------------------------------------------------------------|
A|-------------------------------------------------------------------------------------|
F|-------------------------------------------------------------------------------------|
C|-0-0-0--5-5-5--10-10-10--3-3-3--0-0-0--5-5-5--10-10-10--3-3-3--3--3------------------|
G|-0-0-0--5-5-5--10-10-10--3-3-3--0-0-0--5-5-5--10-10-10--3-3-3--3--3------------------|
C|-0-0-0--5-5-5--10-10-10--3-3-3--0-0-0--5-5-5--10-10-10--3-3-3--3--3------------------|

D|------------------------------------------------------------------------------------|
A|------------------------------------------------------------------------------------|
F|------------------------------------------------------------------------------------|
C|-0-0-0--5-5-5--10-10-10--3-3-3--0-0-0--5-5-5--10-10-10--3-3-3--3--3-----------------|
G|-0-0-0--5-5-5--10-10-10--3-3-3--0-0-0--5-5-5--10-10-10--3-3-3--3--3-----------------|
C|-0-0-0--5-5-5--10-10-10--3-3-3--0-0-0--5-5-5--10-10-10--3-3-3--3--3-----------------|

Guitar 3

D|-------------------------------|
A|-------------------------------|
F|-------7~~~~~~5~5~/7~~~~-------|
C|-0~~~~~---0-0------------------|
G|-------------------------------|
C|-------------------------------|   x8



Then the verse again - same thing as first time


Pre-Chorus 2

Guitar 1

D|----------------------------------------------------------|
A|----------------------------------------------------------|
F|--------------------------------9----------------9--------|
C|-55555555-33333333-1111----------10--------------10-------|
G|--------------------------8-10--------8888-8-10-----------|
C|----------------------------------------------------------|

D|--------------------------------------------------|
A|--------------------------------------------------|
F|--------------------------------9-----------------|
C|-55555555-33333333-1111----------------8--8-------|
G|--------------------------8-10---10----8--8-------|
C|---------------------------------------8--8-------|

Guitar 2

D|---------------------------------------------------------------|
A|---------------------------------------------------------------|
F|-----------------------------------------5----------------5----|
C|--------------------------------------------3---------------3--|
G|------------------------------------5-8--------------5-8-------|
C|-00000000-1010101010101010-8888----------------8888------------|

D|------------------------------------------------------|
A|------------------------------------------------------|
F|-----------------------------------------5------------|
C|--------------------------------------------3---8--8--|
G|------------------------------------5-8---------8--8--|
C|-00000000-1010101010101010-8888-----------------8--8--|


Chorus - same as before


Bridge

Guitar 1

D|------------------------------------------------------------------------------------|
A|------------------------------------------------------------------------------------|
F|------------------------------------------------------------------------------------|
C|-0000000000000000 3333333333333333-5555555555555555-3333333333333333----------------|
G|-0000000000000000 3333333333333333-5555555555555555-3333333333333333----------------|
C|-0000000000000000 3333333333333333-5555555555555555-3333333333333333----------------| x2

Guitar 2

D|------------------------------------------------------------------------------------|
A|------------------------------------------------------------------------------------|
F|-7777777777777777-9999999999999999-1010101010101010-9999999999999999----------------|
C|------------------------------------------------------------------------------------|
G|-5555555555555555-7777777777777777-8888888888888888-7777777777777777----------------|
C|------------------------------------------------------------------------------------| x2


The chorus one final time. Swaggy.


End

Both Guitars

D|-----------------------|
A|-----------------------|
F|-----------------------|
C|-0~~~---1-0-0-00-------|
G|-0~~~---1-0-0-00-------|
C|-0~~~---1-0-0-00-------|
Добавлено: 09.06.2013
Другие материалы по этой песне:
  • Аккорды и текст

Страница создана 09.06.2013
http://primanota.ru/misc-unsigned-bands/jonnyh92-boyfriend-screamo-chords.htm
Привет, Гость.
Предлагаем пройти революционный курс по гитаре.
Подарок от PrimaNota.Ru, забирай!