PrimaNota.ru - самый крупный в мире бесплатный архив песенных текстов, аккордов, табулатур и нот


Misc Unsigned Bands - John Tayles - We Are Ready - таба

Регистрация Запомнить меня
Войти через:  Facebook Google Twitter Vk Yandex Mail.ru

Misc Unsigned Bands - John Tayles - We Are Ready - таба

Печатать
Просмотров: 69
NOTE:  Chords are given as a simplified option to play the song, 
       therefore the chords may differ from the tab slightly.

INTRO:
    G                      D          A                      D        (repeat)
e|----------------|----------------|----------------|------------------------|
B|----------------|----------------|----------------|------------------------|
G|--4--4--4-4--4--|---4-4--11--11--|--9--9--9-9--9--|---9-9--11--11----------|
D|--0--0--0-0--0--|---0-0---0---0--|--0--0--0-0--0--|---0-0---0---0----------|
A|--x--x--x-x--x--|---x-x---x---x--|--x--x--x-x--x--|---x-x---x---x----------|
E|--3--3--3-3--3--|---3-3--10--10--|--9--9--9-9--9--|---9-9--10--10----------|


VERSE 1 + 2:
* eighth notes all down strumming, each chord here represents 4 strums

    D                      A           D                      A
e|----------------|----------------|----------------|------------------------|
B|----------------|----------------|----------------|------------------------|
G|--14----14------|--14----12------|--11----11------|--11-----9--------------|
D|---0-----0------|---0-----0------|---0-----0------|---0-----0--------------|
A|---x-----x------|---x-----x------|---x-----x------|---x-----x--------------|
E|--14----14------|--14----12------|--10----10------|--11-----9--------------|

1:      Can you feel, we're all waking up      Understand what we want
2:      Do you hear, we can cure disease       And every mouth we can feed

     Bm               A               D
e|----------------|----------------|----------------|------------------------|
B|----------------|----------------|----------------|------------------------|
G|---7-----7------|---9-----9------|--11----11------|--11----11--------------|
D|---0-----0------|---0-----0------|---0-----0------|---0-----0--------------|
A|---x-----x------|---x-----x------|---x-----x------|---x-----x--------------|
E|---7-----7------|---9-----9------|--10----10------|--10----10--------------|

              This is our moment
              If we really want it

    D                      A           D                      A
e|----------------|----------------|----------------|------------------------|
B|----------------|----------------|----------------|------------------------|
G|--14----14------|--14----12------|--11----11------|--11-----9--------------|
D|---0-----0------|---0-----0------|---0-----0------|---0-----0--------------|
A|---x-----x------|---x-----x------|---x-----x------|---x-----x--------------|
E|--14----14------|--14----12------|--10----10------|--11-----9--------------|

     Do you see, the fiction on your screen     Selling wars we'll never need
     Do you believe, in all your dreams    Just live your life pursuing these

     Bm               A               D
e|----------------|----------------|----------------|------------------------|
B|----------------|----------------|----------------|------------------------|
G|---7-----7------|---9-----9------|--11----11------|--11----11--------------|
D|---0-----0------|---0-----0------|---0-----0------|---0-----0--------------|
A|---x-----x------|---x-----x------|---x-----x------|---x-----x--------------|
E|---7-----7------|---9-----9------|--10----10------|--10----10--------------|

              The truth will set us free
              And it will all work out


PRE-CHORUS:
* Is the same both times, following verse 1 and 2

    G                             D        A                                         D 
e|--x-x-x-x-x-x-x-x--|--x-x-x-x-x-x-x-x--|--x--x--x--x--x--x--x--x--|--x--x--x--x--x-x-x-x--|
B|--8-8-8-8-8-8-8-8--|--8-8-8-8-8-7-7-7--|-10-10-10-10-10-10-10-10--|-10-10-10-10-10-7-7-7--|
G|--7-7-7-7-7-7-7-7--|--7-7-7-7-7-7-7-7--|--9--9--9--9--9--9--9--9--|--9--9--9--9--9-7-7-7--|
D|--5-5-5-5-5-5-5-5--|--5-5-5-5-5-0-0-0--|--7--7--7--7--7--7--7--7--|--7--7--7--7--7-7-7-7--|
A|-------------------|-------------------|--------------------------|-----------------------|
E|-------------------|-------------------|--------------------------|-----------------------|

  What if we open our eyes and read between the lines what about laying grudges 
down it's happening ask around

    G                             D        A                                       D
e|--x-x-x-x-x-x-x-x--|--x-x-x-x-x-x-x-x--|--x--------x--------x-----|-----x--------x---x----|
B|--8-8-8-8-8-8-8-8--|--8-8-8-8-8-7-7-7--|-10-------10-------10-----|----10--------7---7----|
G|--7-7-7-7-7-7-7-7--|--7-7-7-7-7-7-7-7--|--9--------9--------9-----|-----9--------7---7----|
D|--5-5-5-5-5-5-5-5--|--5-5-5-5-5-0-0-0--|--7--------7--------7-----|-----7--------7---7----|
A|-------------------|-------------------|--------------------------|-----------------------|
E|-------------------|-------------------|--------------------------|-----------------------|

What if we are not afraid to welcome better days. (Oh)What if     we           say.



CHORUS:

    G                      D          A                      D        (repeat)
e|----------------|----------------|----------------|------------------------|
B|----------------|----------------|----------------|------------------------|
G|--4--4--4-4--4--|---4-4--11--11--|--9--9--9-9--9--|---9-9--11--11----------|
D|--0--0--0-0--0--|---0-0---0---0--|--0--0--0-0--0--|---0-0---0---0----------|
A|--x--x--x-x--x--|---x-x---x---x--|--x--x--x-x--x--|---x-x---x---x----------|
E|--3--3--3-3--3--|---3-3--10--10--|--9--9--9-9--9--|---9-9--10--10----------|

We Are Ready                 We Are Ready                             (repeat)


VERSE 2 (lyrics above), PRE-CHORUS, CHORUS, then...


BRIDGE:

    Bm               A                D
e|----------------|----------------|----------------|----------------|
B|----------------|----------------|----------------|----------------|
G|--7-------------|--9-------------|--11------------|----------------|
D|--0-------------|--0-------------|---0------------|----------------|
A|--x-------------|--x-------------|---x------------|----------------|
E|--7-------------|--9-------------|--10------------|----------------|

Have you ever been searching for the truth, ever felt like you didn't even
need the proof.  Cause you know deep down there's something more.  A world 
our hearts are now ready for.

    Bm               A                D                          Em
e|----------------|----------------|------------------|------------------|
B|----------------|----------------|------------------|------------------|
G|--7--7--7--7----|--9--9--9--9----|--11--11--11--11--|--11--11--12--12--|
D|--0--0--0--0----|--0--0--0--0----|---0---0---0---0--|---0---0---0---0--|
A|--x--x--x--x----|--x--x--x--x----|---x---x---x---x--|---x---x---x---x--|
E|--7--7--7--7----|--9--9--9--9----|--10--10--10--10--|--10--10--12--12--|

Where liberty and justice rule the day.  And all our fears just wash away.
When hunger and conflict become the past and we all shout out, "I'm free
at last."

    Bm                  A                   D                                       Bm
e|-------------------|-------------------|---------------------------|---------------------------|
B|-------------------|-------------------|---------------------------|---------------------------|
G|--7-7-7-7-7-7-7-7--|--9-9-9-9-9-9-9-9--|--11-11-11-11-11-11-11-11--|--11-11-11-11-12-12-12-12--|
D|--0-0-0-0-0-0-0-0--|--0-0-0-0-0-0-0-0--|---0--0--0--0--0--0--0--0--|---0--0--0--0--0--0--0--0--|
A|--x-x-x-x-x-x-x-x--|--x-x-x-x-x-x-x-x--|---x--x--x--x--x--x--x--0--|---x--x--x--x--x--x--x--x--|
E|--7-7-7-7-7-7-7-7--|--9-9-9-9-9-9-9-9--|--10-10-10-10-10-10-10-10--|--10-10-10-10-12-12-12-12--|


This isn't about me versus you.  This is about what we could do.
Any one of us could point to what's gone wrong now what if we focus on the world we want.

    Bm                  A                   D     
e|-------------------|-------------------|---------------------------|-----------------------|
B|-------------------|-------------------|---------------------------|-----------------------|
G|--7-7-7-7-7-7-7-7--|--9-9-9-9-9-9-9-9--|--11-11-11-11-11-11-11-11--|--11-11-11-11-11-------|
D|--0-0-0-0-0-0-0-0--|--0-0-0-0-0-0-0-0--|---0--0--0--0--0--0--0--0--|---0--0--0--0--0-------|
A|--x-x-x-x-x-x-x-x--|--x-x-x-x-x-x-x-x--|---x--x--x--x--x--x--x--0--|---x--x--x--x--x-------|
E|--7-7-7-7-7-7-7-7--|--9-9-9-9-9-9-9-9--|--10-10-10-10-10-10-10-10--|--10-10-10-10-10-------|

We have a dream today, where it's not too late and the world is awake and
our only one fate is a golden age.  We'll bring that's why we sing.


BREAKDOWN (GROUP VOCAL)
*Same as Chorus

    G                      D          A                      D        (repeat)
e|----------------|----------------|----------------|------------------------|
B|----------------|----------------|----------------|------------------------|
G|--4--4----4--4--|-----4--11--11--|--9--9--9-9--9--|---9-9--11--11----------|
D|--0--0----0--0--|-----0---0---0--|--0--0--0-0--0--|---0-0---0---0----------|
A|--x--x----x--x--|-----x---x---x--|--x--x--x-x--x--|---x-x---x---x----------|
E|--3--3----3--3--|-----3--10--10--|--9--9--9-9--9--|---9-9--10--10----------|


CHORUS (see above)

OUTRO:

    G                      D          A                      D   
e|----------------|----------------|----------------|-----------------|
B|----------------|----------------|----------------|-----------------|
G|--4-------------|--------11------|--9-------------|--------11-------|
D|--0-------------|---------0------|--0-------------|---------0-------|
A|--x-------------|---------x------|--x-------------|---------x-------|
E|--3-------------|--------10------|--9-------------|--------10-------|

We Are Ready                  We Are Ready

    G                      D          A                      A           D
e|----------------|----------------|----------------|-----------------|----------------|
B|----------------|----------------|----------------|-----------------|----------------|
G|--4-------------|--------11------|--9-------------|--------9--------|--11------------|
D|--0-------------|---------0------|--0-------------|--------0--------|---0------------|
A|--x-------------|---------x------|--x-------------|--------x--------|---x------------|
E|--3-------------|--------10------|--9-------------|--------9--------|--10------------|

We Are Ready                  We Are Ready
Добавлено: 19.06.2013
Другие материалы по этой песне:
  • Аккорды и текст

Страница создана 19.06.2013
http://primanota.ru/misc-unsigned-bands/john-tayles-we-are-ready-chords.htm
Привет, Гость.
Предлагаем пройти революционный курс по гитаре.
Подарок от PrimaNota.Ru, забирай!