PrimaNota.ru - самый крупный в мире бесплатный архив песенных текстов, аккордов, табулатур и нот


Misc Unsigned Bands - Jack And Jennys - Ou Tu Veux - таба

Регистрация Запомнить меня
Войти через:  Facebook Google Twitter Vk Yandex Mail.ru

Misc Unsigned Bands - Jack And Jennys - Ou Tu Veux - таба

Печатать
Просмотров: 90
-------------------------------------------------------------------------------
                           OU TU VUEX - Jack and Jenny's
-------------------------------------------------------------------------------
Tabbed by: Volcz
E-mail: volcom_1720@live.com - I created this email in case anyone finds any errors in 
my tabs.

Tuning: Standard

This is my first tab. A song by a small french duo "Jack and Jenny's". I'm not French 
but I am a Kooks fan, and these guys sound a lot like them! Great song!

The rhythm is easy to figure out, just listen to the song. It's pretty much the same 
throughout. The chords are just the same four over and over again.

UPDATE: 26th May 2013 - Fixed some errors I made in the tab to make it more 
accurate - especially in the intro


INTRO/SOLO - LEAD GUITAR

e|-------------------------------------------------5s6--------------------------|
B|---------------------------------------9---7-6---6s7------6h7p6---------------|
G|---------------------s8-----------8s10--------------------------6--8v---------|
D|------------6-8v-----s10------------------------------------------------------|
A|------6h8---------------------------------------------------------------------|
E|--6-9-------------------------------------------------------------------------|


CHORDS - RHYTHM GUITAR
*The song is played in this order


      D#min7         G#maj       C#major        F#maj
e|------6-------------4------------4-------------2------------------------------|
B|------7-------------4------------6-------------2------------------------------|
G|------6-------------5------------6-------------3------------------------------|
D|------8-------------6------------6-------------4------------------------------|
A|------6-------------6------------4-------------4------------------------------|
E|------x-------------4----------- x-------------2------------------------------|


That's all it is! Super simple!
Enjoy


************************************

| /   slide up
| \   slide down
| h   hammer-on
| p   pull-off
| ~   vibrato
| +   harmonic
| x   Mute note
| b   Bend
| pb  Pre-bend
| br  Bend release
| pbr Pre-bend release
| brb Bend release bend

************************************
Добавлено: 13.10.2013
Другие материалы по этой песне:
  • Аккорды и текст

Страница создана 13.10.2013
http://primanota.ru/misc-unsigned-bands/jack-and-jennys-ou-tu-veux-chords.htm
Привет, Гость.
Предлагаем пройти революционный курс по гитаре.
Подарок от PrimaNota.Ru, забирай!