PrimaNota.ru - самый крупный в мире бесплатный архив песенных текстов, аккордов, табулатур и нот


Misc Unsigned Bands - It Will Lastccsls - It Will Last - аккорды и текст

Регистрация Запомнить меня
Войти через:  Facebook Google Twitter Vk Yandex Mail.ru

Misc Unsigned Bands - It Will Lastccsls - It Will Last - аккорды и текст

Печатать
Просмотров: 44
It Will Lastccsls - It Will Last
Misc Unsigned Bands
It Will Last Tab by III-year  Batch 2006-2007
(Feb. 9, 2007)

www.Ultimate-Guitar.com

Song: It Will Last
Composer: Diane Ymbomg
	  Jona Vilan
Performed by: III-Angel Sealtiel
	      III-Angel Sealtiel
		Batch 2006-2007
Tabbed by: Class President of III-Angel Sealtiel
Album: JS Promenade Junior Song


Intro: C, G , F

Verse I:
   C          G      F
I smile everytime i think of you
   C      G     F
I fly whenever i'm with you
   C        G        F
I wish on a star and there was you
   C              G     F
My world seems to be a fairytale come true

C, G, F


Refrain:
C            G     F
You brighten up my day
       C         G       F
Listen up to the words I say
    A           G      F
You help reach for the skies
         C          G-F(ibagsak lang pagdating sa F)
And come up for my cries...


Chorus:
          C          G           F
Cause our journey in life has begun
        C           G           F
We will fly to the heavens and reach for the stars
        C            G               F
We will walk hand in hand and we'll shout to all lands
            C           G     F-hold             C   
  F (strum lang)
That the friendship we have...       It will last

C, G, F


Verse II:
    C          G       F
You brought me up when i was down
       C          G        F
When i needed someone you were around
       C            G         F
You've torn all my grief and touched my heart
         C       G         F
Cared to call me up though we are apart

C, G, F


Refrain:
C            G     F
You brighten up my day
       C         G       F
Listen up to the words I say
    A           G      F
You help reach for the skies
         C          G-F(ibagsak lang pagdating sa F)
And come up for my cries...

Chorus:
          C          G           F
Cause our journey in life has begun
        C           G           F
We will fly to the heavens and reach for the stars
        C            G               F
We will walk hand in hand and we'll shout to all lands
            C           G     F-hold             C   
  F
That the friendship we have...       It will last

Adlib: C, G, F x4

*
e||--------10--12-/14--12--10-9-10-9h10-9h10---|
B||-10--12-------------------------------------|
G||--------------------------------------------|
D||--------------------------------------------|
A||--------------------------------------------|
E||--------------------------------------------|


e||--------10--12-/14--12--10--12--17-15-14-12-|
B||-10--12-------------------------------------|
G||--------------------------------------------|
D||--------------------------------------------|
A||--------------------------------------------|
E||--------------------------------------------|


e||--------10--12-/14--12--10--12--17-15-14-12-|
B||-10--12-------------------------------------|
G||--------------------------------------------|
D||--------------------------------------------|
A||--------------------------------------------|
E||--------------------------------------------|


e||--------10--12-/14--12~--10--9--10~---------|
B||-10--12-------------------------------------|
G||--------------------------------------------|
D||--------------------------------------------|
A||--------------------------------------------|
E||--------------------------------------------|


Chorus:
          C          G           F
Cause our journey in life has begun
        C           G           F
We will fly to the heavens and reach for the stars
        C            G               F
We will walk hand in hand and we'll shout to all lands
            C           G     F
That the friendship we have...

Chorus:Higher ang pitch

          D          A           G
Cause our journey in life has begun
        D           A           G
We will fly to the heavens and reach for the stars
        D            A               G
We will walk hand in hand and we'll shout to all lands
            D           A     G-hold
That the friendship we have...

          D   A   G
It will last

         D   A   G
It will last

         D   A   G(fade)
It will last...

* yung adlib ay di sigurado... depende yan lang sa lead guiatrist namin... gawa-gawa ko 
yan... kung gusto nyong malaman ang totoong lead, maghintay kayo baka mag-post ng tab 
aming lead guitarist....


Yun lang... paki rate...=)
Добавлено: 16.08.2013
Другие материалы по этой песне:
  • Аккорды и текст

Страница создана 16.08.2013
http://primanota.ru/misc-unsigned-bands/it-will-lastccsls-it-will-last-chords.htm
Привет, Гость.
Предлагаем пройти революционный курс по гитаре.
Подарок от PrimaNota.Ru, забирай!