PrimaNota.ru - самый крупный в мире бесплатный архив песенных текстов, аккордов, табулатур и нот


Misc Unsigned Bands - Invictious - Flight Of The Bumble Bee - таба

Регистрация Запомнить меня
Войти через:  Facebook Google Twitter Vk Yandex Mail.ru

Misc Unsigned Bands - Invictious - Flight Of The Bumble Bee - таба

Печатать
Просмотров: 44
Transcribed and 
by: Invictious

This is my own personal interpretation and transcription of the piece, Flight of the 
Bee, composed by Rimsky-Karsakov.

This is a great piece for players are intermediate level, it involves lots of chromatics 
string changing, so good finger

independance and good picking technique is essential.


Duration Legend
---------------
W - whole
H - half
Q - quarter
E - 8th
S - 16th
T - 32nd
X - 64th
. - note dotted
|-n-|  - n-tuplets

              S  S  S S  S S S S    S S S S S S S S    S S S S S S S S
E||-------|--12-11-10-9-10-9-8-7-|--8-7-6-5---------|------------------|
B||-------|----------------------|----------9-8-7-6-|------------------|
G||-------|----------------------|------------------|--9-8-7-6-7-6-5-4-|
D||-------|----------------------|------------------|------------------|
A||-------|----------------------|------------------|------------------|
E||-------|----------------------|------------------|------------------|


  S S S S S S S S    S S S S S S S S    S S S S S S S S    S S S S S S S S
------------------|------------------|------------------|------------------|
------------------|------------------|------------------|------------------|
--5-4-3-2---------|------------------|------------------|------------------|
----------6-5-4-3-|------------------|------------------|------------------|
------------------|--7-6-5-4-5-4-3-2-|--7-6-5-4-5-4-3-2-|--7-6-5-4-5-4-3-2-|
------------------|------------------|------------------|------------------|


  S S S S S S S S    S S S S S S S S    S S S S S S S S    S S S S S S S S
------------------|------------------|------------------|------------------|
------------------|--5-4-------6-5-4-|--5-4-----------4-|--5-4-------6-5-4-|
------------------|------7-6-5-------|------7-6-5-6-7---|------7-6-5-------|
------------------|------------------|------------------|------------------|
--7-6-5-4-5-4-3-2-|------------------|------------------|------------------|
------------------|------------------|------------------|------------------|


  S S S S S S S S    S S S S S S S S    S S S S S S S S    S S S S S S S S
------------------|------------------|------------------|------------------|
--5-4-----------4-|--5-4-------------|--------4-5-6-5-4-|--5-4-------------|
------7-6-5-6-7---|------7-6-7-6-5-4-|--5-6-7-----------|------7-6-7-6-5-4-|
------------------|------------------|------------------|------------------|
------------------|------------------|------------------|------------------|
------------------|------------------|------------------|------------------|


  S S S S S S S S     S S  S  S  S  S  S S     S S  S  S  S  S  S S
------------------|------------------------|------------------------|
--------4-5-7-8-9-|--10-9----------11-10-9-|--10-9----------------9-|
--5-6-7-----------|-------12-11-10---------|-------12-11-10-11-12---|
------------------|------------------------|------------------------|
------------------|------------------------|------------------------|
------------------|------------------------|------------------------|


   S S  S  S  S  S  S S     S S  S  S  S  S  S S     S S  S  S  S  S  S S
------------------------|------------------------|------------------------|
--10-9----------11-10-9-|--10-9----------------9-|--10-9------------------|
-------12-11-10---------|-------12-11-10-11-12---|-------12-11-12-11-10-9-|
------------------------|------------------------|------------------------|
------------------------|------------------------|------------------------|
------------------------|------------------------|------------------------|


   S  S  S S  S  S  S S     S S  S  S  S  S  S S     S  S  S S  S  S  S S
------------------------|------------------------|------------------------|
-----------9-10-11-10-9-|--10-9------------------|-----------9-10-11-10-9-|
--10-11-12--------------|-------12-11-12-11-10-9-|--10-11-12--------------|
------------------------|------------------------|------------------------|
------------------------|------------------------|------------------------|
------------------------|------------------------|------------------------|


  S S S S S S S S    S S S S S S S S    S S S S S S S S    S S S S S S S S
------------------|------------------|------------------|------------------|
------------------|------------------|------------------|------------------|
------------------|------------------|------------------|------------------|
--7-------7-------|--7-8-7-8-7-8-7-6-|--7-------7-------|--7-8-7-8-7-8-7-6-|
----0-0-0---0-0-0-|------------------|----0-0-0---0-0-0-|------------------|
------------------|------------------|------------------|------------------|


  S S S S S S S S    S S S S S S S S    S S S  S  S  S S S
------------------|------------------|---------------------|
------------------|------------------|---------------------|
------------------|------------------|---------------------|
--7-8-7-6-7-8-7-6-|--7-8-7-6-7-8-7-6-|--7-8-9-10-11-10-9-8-|
------------------|------------------|---------------------|
------------------|------------------|---------------------|


  S S S  S  S  S S S     S S S S  S S S S     S  S  S  S  S  S  S  S
---------------------|--------------------|--------------------------|
---------------------|--10-------10-------|--10-11-10-11-10-11-10-11-|
---------------------|-----7-7-7----7-7-7-|--------------------------|
--7-8-9-10-11-10-9-8-|--------------------|--------------------------|
---------------------|--------------------|--------------------------|
---------------------|--------------------|--------------------------|


   S S S S  S S S S     S  S  S  S  S  S  S  S     S  S  S S  S  S  S S
--------------------|--------------------------|------------------------|
--10-------10-------|--10-11-10-11-10-11-10-11-|--10-11-10-9-10-11-10-9-|
-----7-7-7----7-7-7-|--------------------------|------------------------|
--------------------|--------------------------|------------------------|
--------------------|--------------------------|------------------------|
--------------------|--------------------------|------------------------|


   S  S  S S  S  S  S S     S  S  S  S  S  S  S  S     S  S  S  S  S  S  S  S
------------------------|--------------------------|--------------------------|
--10-11-10-9-10-11-10-9-|--10-11-12-13-14-13-12-11-|--10-11-12-13-14-13-12-11-|
------------------------|--------------------------|--------------------------|
------------------------|--------------------------|--------------------------|
------------------------|--------------------------|--------------------------|
------------------------|--------------------------|--------------------------|


   S  S  S  S  S  S  S  S     S  S  S  S  S  S  S  S
--------------------------|--------------------------|
--15-14----------16-15-14-|--15-14----------------14-|
--------17-16-15----------|--------17-16-15-16-17----|
--------------------------|--------------------------|
--------------------------|--------------------------|
--------------------------|--------------------------|


   S  S  S  S  S  S  S  S     S  S  S  S  S  S  S  S
--------------------------|--------------------------|
--15-14----------16-15-14-|--15-14----------------14-|
--------17-16-15----------|--------17-16-15-16-17----|
--------------------------|--------------------------|
--------------------------|--------------------------|
--------------------------|--------------------------|


   S  S  S  S  S  S  S  S     S  S  S  S  S  S  S  S
--------------------------|--------------------------|
--15-14-------------------|-----------14-15-16-15-14-|
--------17-16-17-16-15-14-|--15-16-17----------------|
--------------------------|--------------------------|
--------------------------|--------------------------|
--------------------------|--------------------------|


   S  S  S  S  S  S  S  S     S  S  S  S  S  S  S  S
--------------------------|--------------------------|
--15-14-------------------|-----------14----14-15-16-|
--------17-16-17-16-15-14-|--15-16-17----17----------|
--------------------------|--------------------------|
--------------------------|--------------------------|
--------------------------|--------------------------|


   S  S  S  S  S  S  S  S     S  S  S  S  S  S  S  S     S  S S S S  S S S
--------------------------|--------------------------|---------------------|
--17-16-15-14-15-14-13-12-|--13-12-11-10-------------|---------------------|
--------------------------|--------------13-12-11-10-|--11-10-9-8-9-10-9-8-|
--------------------------|--------------------------|---------------------|
--------------------------|--------------------------|---------------------|
--------------------------|--------------------------|---------------------|


  S  S S S S  S S S    Q     E  E      E   E   E  E      Q     E   E
--------------------|-------12--8--|--------------8--|--12----24--20--|
--------------------|--------------|--10------10-----|----------------|
--9-10-9-8-9-10-9-8-|--9-----------|------10---------|----------------|
--------------------|--------------|-----------------|----------------|
--------------------|--------------|-----------------|----------------|
--------------------|--------------|-----------------|----------------|


   E   E   E   E      H           H           Q    S S S  S    S S S S S S S S
--17------17--20--|--24--------|--0--------|----------------|------------------|
------17----------|------------|-----------|----------------|------------------|
------------------|------------|-----------|----------------|----------5-6-7-8-|
------------------|------------|-----------|----------------|--6-7-8-9---------|
------------------|------------|-----------|--7----7-8-9-10-|------------------|
------------------|------------|-----------|----------------|------------------|


  S S S S S S S S    S S S S S S S S    S S S S S S S S    S S S S S S S S
------------------|------------------|------------------|------------------|
--5-4-------6-5-4-|--5-4-----------4-|--5-4-------6-5-4-|--5-4-----------4-|
------7-6-5-------|------7-6-5-6-7---|------7-6-5-------|------7-6-5-6-7---|
------------------|------------------|------------------|------------------|
------------------|------------------|------------------|------------------|
------------------|------------------|------------------|------------------|


  S S S S S S S S    S S S S S S S S    S S S S S S S S    S S S S S S S S
------------------|------------------|------------------|------------------|
--5-4-------------|--------4-5-6-5-4-|--5-4-------------|--------4-5-7-8-9-|
------7-6-7-6-5-4-|--5-6-7-----------|------7-6-7-6-5-4-|--5-6-7-----------|
------------------|------------------|------------------|------------------|
------------------|------------------|------------------|------------------|
------------------|------------------|------------------|------------------|


   S S  S  S  S  S  S S     S S  S  S  S  S  S S     S S  S  S  S  S  S S
------------------------|------------------------|------------------------|
--10-9----------11-10-9-|--10-9----------------9-|--10-9----------11-10-9-|
-------12-11-10---------|-------12-11-10-11-12---|-------12-11-10---------|
------------------------|------------------------|------------------------|
------------------------|------------------------|------------------------|
------------------------|------------------------|------------------------|


   S S  S  S  S  S  S S     S S  S  S  S  S  S S     S  S  S S  S  S  S S
------------------------|------------------------|------------------------|
--10-9----------------9-|--10-9------------------|-----------9-10-11-10-9-|
-------12-11-10-11-12---|-------12-11-12-11-10-9-|--10-11-12--------------|
------------------------|------------------------|------------------------|
------------------------|------------------------|------------------------|
------------------------|------------------------|------------------------|


   S S  S  S S  S  S  S    S  S  S  S S S  S  S     S  S  S  S  S  S  S  S
------------------------|-------------8-9-10-11-|--12-11----------13-12-11-|
--10-9------------------|--9-10-11-12-----------|--------15-14-13----------|
-------12-11-9-10-11-12-|-----------------------|--------------------------|
------------------------|-----------------------|--------------------------|
------------------------|-----------------------|--------------------------|
------------------------|-----------------------|--------------------------|


   S  S  S  S  S  S  S  S     S  S  S  S  S  S  S  S
--12-11----------------11-|--12-11----------13-12-11-|
--------15-14-13-14-15----|--------15-14-13----------|
--------------------------|--------------------------|
--------------------------|--------------------------|
--------------------------|--------------------------|
--------------------------|--------------------------|


   S  S  S  S  S  S  S  S     E   S  S  S  S  S  S     S  S  S  S  S  S  S  S
--12-11----------------11-|--12--------------------|--------------------------|
--------15-14-13-14-15----|------------------13-14-|--15-14-13----13----------|
--------------------------|------13-14-15-16-------|-----------16----16-15-14-|
--------------------------|------------------------|--------------------------|
--------------------------|------------------------|--------------------------|
--------------------------|------------------------|--------------------------|


   S  S  S  S  S  S  S  S     S  S  S  S  S  S  S  S     E   S  S  S  S  S  S
-----------------------11-|--12-13-12-11-12-13-12-11-|--12--------------------|
-----------12-13-14-15----|--------------------------|------------------13-14-|
--13-14-15----------------|--------------------------|------13-14-15-16-------|
--------------------------|--------------------------|------------------------|
--------------------------|--------------------------|------------------------|
--------------------------|--------------------------|------------------------|


   S  S  S  S  S  S  S  S     S  S  S  S  S  S  S  S
--------------------------|--------------------------|
--15-14-13----13----------|--------------13-14-15-16-|
-----------16----16-15-14-|--13-14-15-16-------------|
--------------------------|--------------------------|
--------------------------|--------------------------|
--------------------------|--------------------------|


   S  S  S  S  S  S  S  S     S  S  S  S  S  S  S  S
--12-13-12-11-12-14-15-16-|--17-16-15-14-15-14-13-12-|
--------------------------|--------------------------|
--------------------------|--------------------------|
--------------------------|--------------------------|
--------------------------|--------------------------|
--------------------------|--------------------------|


   S  S  S  S  S  S  S  S     S  S  S  S  S  S  S S     S S S S  S  S S S
--13-12-11-10-------------|-------------------------|---------------------|
--------------14-13-12-11-|-------------------------|---------------------|
--------------------------|--14-13-12-11-12-11-10-9-|--10-9-8-7-----------|
--------------------------|-------------------------|-----------11-10-9-8-|
--------------------------|-------------------------|---------------------|
--------------------------|-------------------------|---------------------|


   S  S  S  S  S  S  S  S     E   S  S  S  S  S  S     S  S  S  S  S  S  S  S
--------------------------|------------------------|--------------------------|
--------------------------|------------------------|--------------------------|
--------------------------|------------------------|--------------------------|
--------------------------|---------------------13-|--14-15-14-13-14-15-14-13-|
--12-13-12-11-12-13-12-11-|--12--13-14-15-16-17----|--------------------------|
--------------------------|------------------------|--------------------------|


   E   S  S  S  S  S  S     Q     S  S  S  S     S  S  S  S  S  S  S  S
------------------------|--------------------|--------------------------|
------------------------|--------------------|--------------------------|
------------------12-13-|--14----------------|--------------------------|
--14--13-14-15-16-------|--------------------|--------------10-11-12-13-|
------------------------|--------------------|--11-12-13-14-------------|
------------------------|--------12-13-14-15-|--------------------------|


  S  S  S  S S  S  S  S     S  S  S  S  S  S  S  S     Q     Q
------------------------|--------------12-14-15-16-|--17----------|
-------------9-10-11-12-|--13-14-15-16-------------|--------17----|
--9-10-11-12------------|--------------------------|--------------|
------------------------|--------------------------|--------------|
------------------------|--------------------------|--------------|
------------------------|--------------------------|--------------|


   Q     Q        H           H
--17----------|------------|--5--------||
--------------|------------|--5--------||
--------------|--14--------|--5--------||
--------14----|------------|--7--------||
--------------|------------|--7--------||
--------------|------------|--5--------||
Добавлено: 25.11.2013
Другие материалы по этой песне:
  • Аккорды и текст

Страница создана 25.11.2013
http://primanota.ru/misc-unsigned-bands/invictious-flight-of-the-bumble-bee-chords.htm
Привет, Гость.
Предлагаем пройти революционный курс по гитаре.
Подарок от PrimaNota.Ru, забирай!