PrimaNota.ru - самый крупный в мире бесплатный архив песенных текстов, аккордов, табулатур и нот


Misc Unsigned Bands - Intentions To Kill - Dissolution - таба, видео

Регистрация Запомнить меня
Войти через:  Facebook Google Twitter Vk Yandex Mail.ru

Misc Unsigned Bands - Intentions To Kill - Dissolution - таба, видео

Печатать
Просмотров: 97
Уроки эстрадного вокала в Санкт-Петербурге
This song is called Dissolution, it is currently only tabbed, it will be recorded soon
00:01 - 00:12
intro
E|---------------|
B|---------------|
G|---------------|
D|---------------|  x8
A|3--2-1-0-1-3-0-|
E|1--2-1-0-1-3-0-|
A|---2-1-0-1-3-0-|
00:13 - 00:22
first breakdown
E|---------|
B|---------|
G|---------|
D|---------|  x3
A|000-000--|
E|000-000--|
A|000-111--|

00:23 - 00:35
continued breakdown
E|---------------|
B|---------------|
G|---------------|
D|---------------|  x8
A|3--2-1-0-1-3-0-|
E|1--2-1-0-1-3-0-|
A|---2-1-0-1-3-0-|


00:36 - 00:44
return to fist part of the breakdown
E|---------|
B|---------|
G|---------|
D|---------|  x3
A|000-000--|
E|000-000--|
A|000-111--|

00:45 - 00:57
again, do the second part of this breakdown
E|---------------|
B|---------------|
G|---------------|
D|---------------|  x8
A|6-5-0-4-3-0-1-0|
E|6-5-0-4-3-0-1-0|
A|6-5-0-4-3-0-1-0|

00:58 - 01:07
this is still part of the first breakdown, its just different
E|---------------|
B|---------------|
G|---------------|
D|---------------| x2
A|000-111-000-111|
E|000-111-000-111|
A|000-111-000-111|

01:08 - 01:20
do the second part of the breakdown again
E|---------------|
B|---------------|
G|---------------|
D|---------------|  x8
A|6-5-0-4-3-0-1-0|
E|6-5-0-4-3-0-1-0|
A|6-5-0-4-3-0-1-0|

01:21 - 01:36
Chorus
E|------------------------|
B|------------------------|
G|------------------------|
D|------------------------| x4
A|4-4-4-444-111-22222222--|
E|2-2-2-444-111-22222222--|
A|------444-111-22222222--|

01:37 - 01:46
mini breakdown
E|---------|
B|---------|
G|---------|
D|---------|  x4
A|000-000--|
E|000-000--|
A|000-111--|

01:47 - 02:02
back to chorus
E|----------------------|
B|----------------------|
G|----------------------|
D|----------------------| x4
A|4-4-4-444-111-222222--|
E|2-2-2-444-111-222222--|
A|------444-111-222222--|

02:03
Solo (no rhythm at this point)
E|-----------------------------------------------------------------------|
B|-----------------------------------------------------------------------|
G|-----------------------------------------------------------------------|
D|-----------------------------------------------------------------------|
A|7-7-7-7-7-7-7-7---10-10-10-10-9-9-9-9-6-6-6-6-6-6-6-6-6-6-6-6-6-6-6-6-6|
E|-----------------------------------------------------------------------|
A|-----------------------------------------------------------------------|

02:10
E|--------------------------------------------------------------------|
B|--------------------------------------------------------------------|
G|--------------------------------------------------------------------|
D|--------------------------------------------------------------------|
A|7-7-7-7-7-7-7-7-3-3-3-3-2-2-2-2-------------------------------------|
E|--------------------------------4-4-4-4-4-4-4-4-4-4-4-4-4-4-4-------|
A|--------------------------------------------------------------------|

02:11 - 02:21
this could be the rhythm guitars part but it still gets played by both guitars at the 
end of the solo (this is part 2 of the solo)
E|--------------------------------------------------------------|
B|--------------------------------------------------------------|
G|--------------------------------------------------------------|
D|--------------------------------------------------------------| x2
A|77777777-10-10-10-10-9-9-9-9--6-6-6-6-6-6-6-6-6-6-6-6-6-6-6-6-|
E|77777777-10-10-10-10-9-9-9-9--6-6-6-6-6-6-6-6-6-6-6-6-6-6-6-6-|
A|77777777-10-10-10-10-9-9-9-9--6-6-6-6-6-6-6-6-6-6-6-6-6-6-6-6-|

02:22 - 02:31
ending of solo
E|-------------------------------|
B|-------------------------------|
G|-------------------------------|
D|-------------------------------| x2
A|3-3-3-3-2-2-2-2-0-0-0-0-1-1-1-1|
E|3-3-3-3-2-2-2-2-0-0-0-0-1-1-1-1|
A|3-3-3-3-2-2-2-2-0-0-0-0-1-1-1-1|

02:32
outro (part 1)
E|------------------------------------------------|
B|------------------------------------------------|
G|------------------------------------------------|
D|------------------------------------------------|
A|0-0-0-0-0-0-0-0-0-0-0-0-0-0-0-0-0-0-0-0-0-0-0-0-|
E|0-0-0-0-0-0-0-0-0-0-0-0-0-0-0-0-0-0-0-0-0-0-0-0-|
A|1-1-1-0-0-0-1-1-1-0-0-0-1-1-1-0-0-0-1-1-1-0-0-0-|

02:49
the outro changes here
E|----------------------------------------------|
B|----------------------------------------------|
G|----------------------------------------------|
D|----------------------------------------------|
A|0-0-0-0-0-0-0-0-0-0-0-0-0-0-0-0-0-0-0-0-0---0-|
E|0-0-0-0-0-0-0-0-0-0-0-0-0-0-0-0-0-0-0-0-0---0-|
A|1-1-1-0-0-0-1-1-1-0-0-0-1-1-1-0-0-0-1-1-1---0-|

02:55
repeats the outro again (part 2)
E|------------------------------------------------|
B|------------------------------------------------|
G|------------------------------------------------|
D|------------------------------------------------|
A|0-0-0-0-0-0-0-0-0-0-0-0-0-0-0-0-0-0-0-0-0-0-0-0-|
E|0-0-0-0-0-0-0-0-0-0-0-0-0-0-0-0-0-0-0-0-0-0-0-0-|
A|1-1-1-0-0-0-1-1-1-0-0-0-1-1-1-0-0-0-1-1-1-0-0-0-|

03:12
E|---------------------------------------------------:)  E
B|---------------------------------------------------:)  n
G|---------------------------------------------------:)  d
D|---------------------------------------------------:)  i
A|0-0-0-0-0-0-0-0-0-0-0-0-0-0-0-0-0-0-0-0-0---0------:)  n
E|0-0-0-0-0-0-0-0-0-0-0-0-0-0-0-0-0-0-0-0-0---0------:)  g
A|1-1-1-0-0-0-1-1-1-0-0-0-1-1-1-0-0-0-1-1-1---0-|  --:)
Добавлено: 04.09.2013
Другие материалы по этой песне:
  • Аккорды и текст

Страница создана 04.09.2013
http://primanota.ru/misc-unsigned-bands/intentions-to-kill-dissolution-chords.htm
Привет, Гость.
Предлагаем пройти революционный курс по гитаре.
Подарок от PrimaNota.Ru, забирай!